Ads

Sis Puella Magica! (Puella Magi Madoka Magica) Guitar Tab

Submitted: Mar 20, 2012 by daniel guerra c...

5
Average: 5 (2 votes)
Download | Listen
Game: Puella Magi Madoka Magica
Composer(s): Yuki Kajiura
Style: Transcription

AutoScroll: Slow | Medium | Fast
Sis Puella Magica! - Puella Magi Madoka Magica
Guitar Cover

Song : Sis Puella Magica!
Anime: Puella Magi Madoka Magica
Cover: Daniel Guerra Caballero (original)
Video: http://youtu.be/walbGj_lKkI
Date : March, 2012
Mail : [email protected]
web  : http://danielguerracaballero.blogspot.com


(0:03-0:43) and (0:49-1:28)
1------------------------------------------------------------------------
2------------------------------------------------------------------------
3-10/12-14-15-14----12---12-14-15-14----12-12----14-15-14-------14-15-12- (x2)
4----------------15------------------15-------------------15-15----------
5------------------------------------------------------------------------
6------------------------------------------------------------------------

1----------------------------------------------------------------------------------
2----------13-15----15-13---------------------------13-15----15-13----------13--15-
3-12-14-15-------12-------15-14-14-15-12---12-14-15-------12-------15-14-15--------
4----------------------------------------------------------------------------------
5----------------------------------------------------------------------------------
6----------------------------------------------------------------------------------

1----------------------------------------------------------------------------------
2----------13-15----15-13----13-15-16-15---13-15-13---11-13-11--10--------10-11-8--
3-12-14-15-------12-------15---------------------------------------12--10----------
4----------------------------------------------------------------------------------
5----------------------------------------------------------------------------------
6----------------------------------------------------------------------------------


Flute (1:29-2:10)

1------------------------------------------------------------------------
2------------------------------------------------------------------------
3-10/12-14-15-14----12---12-14-15-14----12-12----14-15-14-------14-15-12-  
4----------------15------------------15-------------------15-15----------
5------------------------------------------------------------------------
6------------------------------------------------------------------------

1---------------------------------------------------------------------------
2---------------------------------------------------------------------------
3-10-12-14-15-14----12---12-14-15-14----12-12----14-15-15/17-15-14-14-15-12-
4----------------15------------------15-------------------------------------
5---------------------------------------------------------------------------
6---------------------------------------------------------------------------

1-------------------------------------------------------------------------------------
2----------13-15----15-13-------13---------------------13-15----15-13-------13---13-15
3-12-14-15-------12-------15-14----15-14-12---12-14-15-------12-------15-14----15-----
4-------------------------------------------------------------------------------------
5-------------------------------------------------------------------------------------
6-------------------------------------------------------------------------------------

1----------------------------------------------------------------------------------
2----------13-15----15-13----13-15-16-15---13-15-13---11-13-11--10--------10-11-8--
3-12-14-15-------12-------15---------------------------------------12--10----------
4----------------------------------------------------------------------------------
5----------------------------------------------------------------------------------
6----------------------------------------------------------------------------------


(2:11-2:30)

1----------------------------------------------------------------------------------
2----------13-15----15-13---------------------------13-15----15-13----------13--15-
3-12-14-15-------12-------15-14-14-15-12---12-14-15-------12-------15-14-15--------
4----------------------------------------------------------------------------------
5----------------------------------------------------------------------------------
6----------------------------------------------------------------------------------

1----------------------------------------------------------------------------------
2----------13-15----15-13----13-15-16-15---13-15-13---11-13-11--10--------10-11-8--
3-12-14-15-------12-------15---------------------------------------12--10----------
4----------------------------------------------------------------------------------
5----------------------------------------------------------------------------------
6----------------------------------------------------------------------------------


End

1------------------------------------------------------
2----10-11-8-------------------------------------------
3-10---------------------------------------------------
4------------------------------------------------------
5------------------------------------------------------
6------------------------------------------------------
Login or Register to remove this ad.

1 comment on Sis Puella Magica!

You're quickly becoming one

5

You're quickly becoming one of my favorite tabbers lol.