Ads

Magia (Puella Magi Madoka Magica) Guitar Tab

Submitted: Mar 24, 2011 by daniel guerra c...

4.166665
Average: 4.2 (6 votes)
Download | Listen
Game: Puella Magi Madoka Magica
Composer(s): Yuki Kajiura
Style: 2 or more instruments, Arrangement

Click here for a video example.

AutoScroll: Slow | Medium | Fast
                  Magia Kalafina tabs (full 1st and 2nd guitar)
Magia - Kalafina Guitar Cover

Artist: Kalafina
Serie : Puella Magi Madoka Magica
Cover : Daniel Guerra Caballero (original version)
Site  : http://danielguerracaballero.blogspot.com
Mail  : [email protected]
Video : http://www.youtube.com/watch?v=JWQPesdY0jA
Date  : March, 2011

------------
FIRST GUITAR
------------

Intro (vocal)
1------------------------------------------------------
2---8--9--9-(9)/--11--9--8-----------------------------
3------------------------------------------------------
4------------------------------------------------------
5------------------------------------------------------
6------------------------------------------------------

Lyrics

1--------------------------|----------------------------
2--------------------11----|------------------11--------
3--/12--12--10-10-12----12-|-12-12--12--10-12----12----- (x2)
4--------------------------|----------------------------
5--------------------------|----------------------------
6--------------------------|----------------------------

1------------------|------------------------------------
2------------------|-/13-13-13--11--11----11-13-13-11-11
3--8-8-8--10-10-10-|------------------------------------
4------------------|------------------------------------
5------------------|------------------------------------
6------------------|------------------------------------

1------------------------------------------------------
2----11------------------------------------------------
3-12----12---10-10---10--8-8---10-10/-12------8-10-12--
4----------------------------------------10------------
5------------------------------------------------------
6------------------------------------------------------

1------------------------------------------------------
2-/13-13-13--11--11----11-13-13-11-11------11----------
3---------------------------------------12----12--10-10
4------------------------------------------------------
5------------------------------------------------------
6------------------------------------------------------

1------------------------------------------------------
2------------------------------------------------------
3-10--8-8-----12-15-15-15-16-16-16---------------------
4------------------------------------------------------
5-------------------------------------0-3-5------------
6------------------------------------------------------

1------------------------------------------------------
2------------------------------------------------------
3-/14--12-12-12---12-10-10----9-9-10-12---------------- (x2)
4------------------------------------------------------
5------------------------------------------------------
6------------------------------------------------------
1------------------------------------------------------

2---------------------------10-13-11-10----------------
3-/14--12-12-12---12-10-10-----------------------------
4------------------------------------------------------
5------------------------------------------------------
6------------------------------------------------------

1-----------------------|-------------------------------
2--8-10-10/11-10-8/-10--|-8----8-10---------------------
3-----------------------|---10--------------------------
4-----------------------|-------------------------------
5-----------------------|-------------------------------
6-----------------------|-------------------------------

1------------------------------------------------------
2------------------------------------------------------
3-/14--12-12-12---12-10-10----9-9-10-12---------------- 
4------------------------------------------------------
5------------------------------------------------------
6------------------------------------------------------

1------------------------------------------------------
2----------------------------10-13-11-10---------------
3-/14--12-12-12---12-10-10----------------------------- 
4------------------------------------------------------
5------------------------------------------------------
6------------------------------------------------------

1-----------------------------------6-5-3-3--/8-6-5-5-5
2-8-10/11-11-10-8---6-8/10-10-8-6----------------------
3------------------------------------------------------ 
4------------------------------------------------------
5------------------------------------------------------
6------------------------------------------------------

Outro (vocal)

1--10--11--11-(11)/--13--11--10------------------------
2------------------------------------------------------
3------------------------------------------------------
4------------------------------------------------------
5------------------------------------------------------
6------------------------------------------------------

-------------
SECOND GUITAR
-------------

1------------------------------------------------------
2------------------------------------------------------
3------------------------------------------------------
4--5-5-5-5-5-5-5-5-5-5-5-5-5-5-5-5-5-5-5-5-5-5-5-5-5-5-
5--3-3-3-3-3-3-3-3-3-3-3-3-3-3-3-3-3-3-3-3-3-3-3-3-3-3-
6------------------------------------------------------

1-----|    |-----------------|----|    |---------------
2-----|    |-----------------|----|    |---------------
3-----|    |-----------------|----|    |---------------
4--5--|(x9)|---------3-3-3---|-5--|(x9)|---------3-3-3-
5--3--|    |--6-6-6--1-1-1---|-3--|    |--6-6-6--1-1-1-
6-----|    |--4-4-4----------|----|    |--4-4-4--------

1------------------------------------------------------
2------------------------------------------------------
3------------------------------------------------------
4---------------3-3-3-3-3-3--5-5-5-5-5-5-5-5-5-3-------
5--6-6-6-6-6-6--1-1-1-1-1-1--3-3-3-3-3-3-3-3-3-1-------
6--4-4-4-4-4-4-----------------------------------------

1------------------------------------------------------
2------------------------------------------------------
3------------------------------------------------------
4---------------3-3-3-3-3-3----------------3-3-3-5-5-5-
5--6-6-6-6-6-6--1-1-1-1-1-1--6-6-6-6-6-6-6-1-1-1-2-2-3-
6--4-4-4-4-4-4---------------4-4-4-4-4-4-4-------------

1--------|---|     |-----------------------------------
2--------|---|     |-----------------------------------
3--------|-7-|     |-----------------------------------
4--------|-7-|(x12)|3-3-3-3-3-3------------------------
5--0-3-5-|-5-|     |1-1-1-1-1-1-3-3-3-3-5-5-5-5-5-5----
6--------|---|     |------------1-1-1-1-3-3-3-3-3-3----

1-------------|--|    |--------------------------------
2-------------|--|    |--------------------------------
3-------------|-7|    |--------------------------------
4-------------|-7|(x6)|3-3-3-3-3-3---------------------
5-7-7-7-7-7-7-|-5|    |1-1-1-1-1-1-3-3-3-3-5-5-5-5-5-5-
6-5-5-5-5-5-5-|--|    |------------1-1-1-1-3-3-3-3-3-3-

1--------------------------------------|--|     |------
2--------------------------------------|--|     |------
3--------------------------------------|-7|     |------
4--------------3-3-3-3-3-5-5-5-5-7-7-7-|-7|(x18)|------
5-7-7-7-7-7-7--1-1-1-1-1-3-3-3-3-4-4-5-|-5|     |--\---
6-5-5-5-5-5-5--------------------------|--|     |------
Login or Register to remove this ad.

2 comments on Magia

...

5

Not bad...tabber!! ^^

@hsl : Composer = Yuki Kajiura

Okay, thanks

Okay, thanks