Ads

Inevitabilis (Puella Magi Madoka Magica) Guitar Tab

Submitted: Dec 15, 2011 by diralark

5
Average: 5 (11 votes)
Download | Listen
Game: Puella Magi Madoka Magica
Composer(s): Yuki Kajiura
Style: Arrangement, Fingerstyle

AutoScroll: Slow | Medium | Fast
              Inevitabilis             from Puella Magi Madoka Magica (anime)

Music by Yuki Kajiura  >> transcribed by Joel Spadin for piano >> arr. for guitar by Diralark (14 dec 2011)

original OST : http://www.youtube.com/watch?v=A3KwBjslr08

Guitar (capo 5), T(empo) c.a. 60 (rubato), let ring


                   T:54              T:57

                     E  E  H           E  E  Q    Q       E  E  H           E  E  H         
E||---------------|--------0--------|-----0-------L----|--------0--------|-----0-----------|
B||---------------|-----0-----------|--------2---------|-----0-----------|--------2--------|
G||---------------|-----------------|--0---------------|-----------------|--0--------------|
D||---------------|--4--------------|--2---------------|--4--------------|--2--------------|
A||---------------|--2--------------|--2---------------|--2--------------|--2--------------|
E||---------------|-----------------|------------------|-----------------|-----------------|


                                     T:46    T:29         T:66
                                       ^                                    ^               
  E  E  H           E  E  Q    Q       E  E   H           E  E  H           E  E  H         
-----------------|------------------|------------------|--------0--------|-----0-----------|
--3--2-----------|--2---------------|------------------|-----0-----------|--------2--------|
--0-----0--------|-----2-------L----|--2---------------|-----------------|--0--------------|
--0--------------|--2-----2---------|-----2h--4--------|--4--------------|--2--------------|
-----------------|--0---------------|--2---------------|--2--------------|--2--------------|
--3--------------|------------------|------------------|-----------------|-----------------|


                                                                            T:48   T:56
                     ^                 ^                                                     
  E  E  Q    Q       E  E  H           E  E  Q.     S S    E  E  H           E  E  H         
--------0----L----|-----0-----------|-------------------|--0--------------|-----------------|
-----0------------|--------2--------|--3--2---------L-0-|-----3--2--------|--2--3--0--------|
------------------|--0--------------|--0-----0------2---|-----------------|-----------------|
--4---------------|--2--------------|--0----------------|--2--------------|--2-----0--------|
--2---------------|--2--------------|-------------------|--0--------------|--2-----2--------|
------------------|-----------------|--3----------------|-----------------|-----------------|


          T:40      T:74                 T:60                T:75                T:60   T:80 
                    ^                    ^                   ^                    ^                 
  H        E  E     E  E  E  E  E  E     E  E  Q    E  E     E  E  E  E  E  E     E  E  Q    E  E   
-----------------|--2-----------0-----|-------------------|--0-----------------|-------------------|
--L--------0--3--|-----------------3--|--2-------------2--|--------------3--2--|--0----------0--2--|
-----------------|--0--------0--------|--2-----2----2-----|--2-----------------|--------0----------|
--L--------------|--------2-----------|-----2-------------|--0-----0--4--------|--4--0-------------|
--L--------------|-----2--------------|--0----------------|-----0--------------|-------------------|
-----------------|--0-----------------|-------------------|--------------------|--3----------------|


T:84                                                          T:40    T:89      T:82
  ^                    ^                                                        ^                  
  E  E  E  E  E  E     E  E  E  E  E  E     E  Q    Q.        H        E  E     E  E  E  E  E  E   
--------------------|--------------------|--0-------2------|--L--------------|--2--------2--3--2--|
--3-----------0--3--|--2-----------0--2--|-----3-----------|--L--------0--3--|--0-----------------|
--0--------0--------|--2-----2--2--------|--2-------2------|-----------------|--------0-----------|
--------2-----------|--2--2--------------|--0-------0------|--L--------------|-----0--------------|
-----2--------------|--0-----------------|-----------------|-----------------|--------------------|
--0-----------------|--------------------|-----------------|-----------------|--3-----------------|


T:92                  T:84                 T:65     T:53       T:85     T:75              T:58
                      ^                                        ^                    ^                
  E  E  Q    E  E     E  E  E  E  E  E     E  E  Q    E  E     E  E  E  E  E  E     E  E  Q    Q     
--0----------------|--0--------0--2--0--|-------------------|--------------------|------------------|
--2-------------2--|--0-----------------|--3-----0----3--2--|--0-----------0--3--|--2---------------|
--------2----2-----|--------3-----------|-------------------|--0--------0--------|--2----------2----|
-----2-------------|--------4-----------|-----4-------------|--------2-----------|--------4----2----|
--0----------------|-----4--------------|--2----------------|-----2--------------|-----4------------|
-------------------|--2-----------------|-------------------|--0-----------------|--2---------------|


T:28                T:64  T:57                          T:67              T:44
                                      ^                                   ^                
  Q    Q    Q       E  E  H           E  E  H           E  E  H           E  E  Q    Q     
-----------------|--------0--------|-----0-----------|--------0--------|-----0-------L----|
--0--------------|-----0-----------|--------2--------|-----0-----------|--------2---------|
-----------------|-----------------|--0--------------|-----------------|--0---------------|
--2----0---------|--4--------------|-----------------|--4--------------|------------------|
--2----2----L----|--2--------------|--2--------------|--2--------------|--2---------------|
-----------------|-----------------|-----------------|-----------------|------------------|


  ^              
  H.             
--2------------||
--2------------||
--4------------||
---------------||
--2------------||
---------------||

Legend
---------------
H - half
Q - quarter
E - 8th
S - 16th
. - note dotted
L - tied note
^ - brush up
2g4 = i play Hammer style (easier)
Login or Register to remove this ad.

3 comments on Inevitabilis

More Madoka =D I'm so happy~

5

More Madoka =D I'm so happy~ Thank you for the tab

You're welcome~I'm happy too

You're welcome~I'm happy too tabbing some nice tune c:
More Madoka ? I'm working on it actually...

Edit : "2g4 = i play Hammer style (easier)" in legend notes is a sequel of an oldest version, it's obsolete, dont min't about it, I only forgot to delete it

Btw I want to say than Joel

Btw I want to say than Joel Spadin, the piano arranger of this tune also composes awesome melodies as "Flickering City" than i adore. He is just admirable.

His website : http://chaosinacan.com/music