Ads

Desiderium (Puella Magi Madoka Magica) Guitar Tab

Submitted: Dec 21, 2011 by diralark (Last updated: Dec 21, 2011)

5
Average: 5 (8 votes)
Download | Listen
Game: Puella Magi Madoka Magica
Composer(s): Yuki Kajiura
Style: Arrangement, Fingerstyle

AutoScroll: Slow | Medium | Fast
                        Desiderium   from Puella Magi Madoka Magica (anime)

Music by Yuki Kajiura >> transcribed by alphamai1300 for piano >> arr. for guitar by Diralark 

Wish to hear the original ? -> http://www.youtube.com/watch?v=DqYMO_SmxiI

Guitar (I use Capo 2 with nylon guitar), T(empo) c.a. 85 (rubato), let ring notes where "sc"(attato) marks aren't

    T:87                                                  T:75        T:70
 
          sc                                        sc                sc                           
     E.  S E  E  E  E     E.  S E  E  E  E     E.  S E  E  E  E     E  Q    Q.        H.            
E||--------0-----------|--------------------|--------0-----------|----------4------|---------------|
B||------0----2--0-----|--------------------|------0----2--0-----|-----2-----------|---------------|
G||--2--------------1--|--2---1----------1--|--2--------------1--|--2-------4------|---------------|
D||--0--------2--------|--0-----4--2--4-----|--0--------2--------|--4--------------|---------------|
A||--------------------|--------------------|--------------------|-----------------|---------------|
E||--------------------|--------------------|--------------------|-----------------|---------------|


 T:87                                      T:80    T:75   T:50                           T:73 
                                                                       Da Coda
        sc                   sc                   sc             ^                                  
  E.  S E  E  E  E     E.  S E  E  E  E     E.  S E  E  E  E     H.              H        S S  S S  
--------0-----------|--------------------|--------0-----------|---------------|------------------0-|
------0----2--0-----|--------------------|------0----3--2--0--|--2------------|-------------0h-2---|
--2--------------1--|--2---1----------1--|--2-----------------|--2------------|-----------2--------|
--0--------2--------|--0-----4--2--4-----|--0--------2--------|--4------------|--------------------|
--------------------|--------------------|--------------------|---------------|--------------------|
--------------------|--------------------|--------------------|---------------|--------------------|


    T:80     T:85        T:93    T:80   T:75        T:80     T:85        T:90

     sc       sc                         sc          sc       sc                        sc     
  E  E  E  E  E  E     E  S  S  S S S  S E  E     E  E  E  E  E  E     E  S  S  S S S S E  E   
-----5--5-----3--3--|-----0h-1p-0--------0-----|-----0--0-----------|----------------------0--|
--------------0--0--|-------------3-1h-3-------|-----1--1-----3--3--|-----2h-3p-2-0---0-2-----|
-----5--5--0--------|--2------------2-------2--|-----------0--4--4--|--2------------2------2--|
--3-----------------|--------------------------|--3-----------------|-------------------2-----|
--------------------|--------------------------|--------------------|---------------0---------|
--------------------|--------------------------|--------------------|-------------------------|


    T:85              T:80                                                                  T:50

     sc                                                                         
  E  E  E  E  E  E     E  S  S  E  E  S  S  E     E      S  S  E  E  E  E     E  E  E  E  E  E   
-----5--5-----3--3--|-----0h-1p-0--------------|---------------------------|--------------------|
--------------0--0--|-----------------3h-5p-3--|---------1h-3p-1--0--------|--------------------|
-----5--5--0--------|--2-----------0-----------|------------------0--2--0--|--2-----------------|
--3-----------------|--3-----------2-----------|--3---------------2--------|--2--------0--2-----|
--------------------|--------------------------|---------------------------|--0-----0--------2--|
--------------------|--------------------------|---------------------------|-----0--------------|


                                  T:85                   T:80              T:85     
                  D.C.al Coda     CODA
  ^                                                       ^     ^           Asus4 then A                            
  H.              H.              H        S S  S S    E  E  E  E  E  E     E            E  E  Q.      
---------------|---------------|------------------0-|-----5--0--3--------|--0-------------------------|
---------------|---------------|-------------0h-2---|-----5-----3--3-----|--3------------2------------|
---------------|---------------|-----------2--------|-----5-----4-----4--|--2---------------2---------|
--2------------|--L------------|--------------------|--3--------5--------|---------------------2------|
--4------------|--L------------|--------------------|--------------------|----------------------------|
--5------------|--L------------|--------------------|--------------------|----------------------------|


                  T:80                  T:53         T:83                            T:65    

                         Asus4 then A                    sc       sc          sc       sc     
  E   E  E  E   E  E     E            E  E  Q.        E  E  E  E  E  E     E  E  E  E  E  E   
------0---------------|----------------------------|--------------------|--------------------|
---------1--0---1--0--|--3------------2------------|-----1--1-----0--0--|--------------0--0--|
--2---------0---------|--2---------------2---------|-----2--2-----0--0--|-----2--2-----0--0--|
--3-------------------|--2------------------2------|--3--------2--------|--0--3--3--2--------|
----------------------|--0-------------------------|--------------------|--------------------|
------------0---------|----------------------------|--------------------|--------------------|


acc->T:70 T:55          acc-------->T:65   T:30                                        
                                                  ^              
  S S S S S S  Q.        S  S S S S S E  E  E     H.             
----------0-----------|--------------------------|--0------------||
--------2---0h-2------|-----------------0--------|--2------------||
------2---------------|---------------1----2-----|--2------------||
----2-----------------|-------------2---------2--|---------------||
--0-------------------|---------0-4--------------|---------------||
----------------------|--(5)p-0------------------|---------------||


Legend
---------------
H - half
Q - quarter
E - 8th
S - 16th
. - note dotted
L - tied note
x - dead note
h - hammer on
p - pull off
^ - brush up
acc-> tempo accelerate to T:
sc - staccato marks (to improve the rythm)
D.C. Al Coda - means : continue to play from the beginning, when u read "Da coda" jump to the "CODA" mark
Login or Register to remove this ad.

4 comments on Desiderium

hehe nice =)

I dont know this song but I like it! you did a really great job diralark ^_^

I love this track so much and

5

I love this track so much and now I can play it! What an amazing tab, thank you =)

Hey Thanks for your comments

Hey Thanks for your comments kind people of gametabs c:

Madoka is looking down on

Madoka is looking down on diralark, smiling.