Ads

Connect (Puella Magi Madoka Magica) Guitar Tab

Submitted: Nov 10, 2013 by corntastic (Last updated: Nov 10, 2013)

4.142855
Average: 4.1 (7 votes)
Download | Listen
Game: Puella Magi Madoka Magica
Composer(s): Yuki Kajiura
Style: Alternate picking, Transcription

AutoScroll: Slow | Medium | Fast
Connect
Puella Magi Madoka Magica
Yuki Kajiura, ClaRis
corntastic
9 11 2013

This is the intro:

e--------------5----------5----------5----8-------------------------------
B--6--5--6--8-------6--8-------6--8---------------------------------------
G-------------------------------------------------------------------------
D-------------------------------------------------------------------------
A-------------------------------------------------------------------------
E-------------------------------------------------------------------------

e-------------------------------------------------------------------------
B--8--8----5--6--8----5--8--6--5--6---------------------------------------
G-------------------------------------------------------------------------
D-------------------------------------------------------------------------
A-------------------------------------------------------------------------
E-------------------------------------------------------------------------

e-----------5----------5----------5----8----------------------------------
B-----6--8-------6--8-------6--8------------------------------------------
G--7----------------------------------------------------------------------
D-------------------------------------------------------------------------
A-------------------------------------------------------------------------
E-------------------------------------------------------------------------

e--------------------5----------------------------------------------------
B--8--8--------7--8-------------------------------------------------------
G-------------------------------------------------------------------------
D-------------------------------------------------------------------------
A-------------------------------------------------------------------------
E-------------------------------------------------------------------------

______________________________________________________________________________________

e-------------------------------------------------------------------------
B--8-----------------6----------------------------------------------------
G-----5-7--8----8--8----7----7--7-5---------------------------------------
D------------------------------------8------------------------------------
A-------------------------------------------------------------------------
E-------------------------------------------------------------------------

e-------------------------------------------------------------------------
B------------------------9----8-8--6-----6-------6------------------------
G-------5--7----------7---------------7-----8---------8----7--------------
D--8----------8----8------------------------------------------------------
A-------------------------------------------------------------------------
E-------------------------------------------------------------------------

e-------------------------------------------------------------------------
B--8-----------------6----------------------------------------------------
G-----5-7--8----8--8----7----7--7-5---------------------------------------
D------------------------------------8------------------------------------
A-------------------------------------------------------------------------
E-------------------------------------------------------------------------

e--6---------------------------6------------------------------------------
B-----8-6-----6----6----6-6-------8----6----------------------------------
G----------8----8-----8---------------------8-----------------------------
D---------------------------8---------------------------------------------
A-------------------------------------------------------------------------
E-------------------------------------------------------------------------

______________________________________________________________________________________

e-------------------------------------------------------------------------
B-----6--8--------6------------6---------8----8---------------------------
G--8-----------------8----8---------5-------------------------------------
D-------------------------------------------------------------------------
A-------------------------------------------------------------------------
E-------------------------------------------------------------------------

e--------6----------------------------------------------------------------
B--8--9-------9----8----6-------6-----------------------------------------
G----------------------------8--------------------------------------------
D---------------------------------8----8--8-------------------------------
A-------------------------------------------------------------------------
E-------------------------------------------------------------------------

e-----------------------------------6----6--------------------------------
B-----6--8--------6------------6------------------------------------------
G--8-----------------8----8-------------------7--8------------------------
D-------------------------------------------------------------------------
A-------------------------------------------------------------------------
E-------------------------------------------------------------------------

e-------------------------------------------------------------------------
B------------6-------6------------6-------6--8--9-------------------------
G--5----8---------8-------8----8-------8----------------------------------
D-------------------------------------------------------------------------
A-------------------------------------------------------------------------
E-------------------------------------------------------------------------

______________________________________________________________________________________

e--------------6----------6----------6--9---------------------------------
B--7--6--7--9-------7--9-------7--9---------------------------------------
G-------------------------------------------------------------------------
D-------------------------------------------------------------------------
A-------------------------------------------------------------------------
E-------------------------------------------------------------------------

e-------------------------------------------------------------------------
B--9--9----6--7--9----6--9--7--6--7---------------------------------------
G-------------------------------------------------------------------------
D-------------------------------------------------------------------------
A-------------------------------------------------------------------------
E-------------------------------------------------------------------------

e-----------6----------6----------6--9------------------------------------
B-----7--9-------7--9-------7--9------------------------------------------
G--8----------------------------------------------------------------------
D-------------------------------------------------------------------------
A-------------------------------------------------------------------------
E-------------------------------------------------------------------------

e--------------------6----------------------------------------------------
B--9--9--------8--9-------------------------------------------------------
G-------------------------------------------------------------------------
D-------------------------------------------------------------------------
A-------------------------------------------------------------------------
E-------------------------------------------------------------------------

e--------------6----------6----------6--9---------------------------------
B--7--6--7--9-------7--9-------7--9---------------------------------------
G-------------------------------------------------------------------------
D-------------------------------------------------------------------------
A-------------------------------------------------------------------------
E-------------------------------------------------------------------------

e------------------------9--7--6------------------------------------------
B--9--9----6--7--9----6-----------7----6----7-----------------------------
G-------------------------------------------------------------------------
D-------------------------------------------------------------------------
A-------------------------------------------------------------------------
E-------------------------------------------------------------------------

e--6--6--7--6----6pb7--6pb7r6--------6---------7b9r7g6--------------------
B-------------9---------------------------9-------------------------------
G-------------------------------------------------------------------------
D-------------------------------------------------------------------------
A-------------------------------------------------------------------------
E-------------------------------------------------------------------------

Repeat everything, minus the intro
______________________________________________________________________________________

e-------------------------------------------------------------------------
B--7---7----7--9--7--6----6--7-----7--9--6--------------------------------
G----8---8----------------------8-----------6-----------------------------
D-------------------------------------------------------------------------
A-------------------------------------------------------------------------
E-------------------------------------------------------------------------

e-------------------------------------------6-----------------------------
B--7---7----7--9--7--6----6--7---------7---------9------------------------
G----8---8------------------------8---------------------------------------
D-------------------------------------------------------------------------
A-------------------------------------------------------------------------
E-------------------------------------------------------------------------

______________________________________________________________________________________

e--------------6----------6----------6--9---------------------------------
B--7--6--7--9-------7--9-------7--9---------------------------------------
G-------------------------------------------------------------------------
D-------------------------------------------------------------------------
A-------------------------------------------------------------------------
E-------------------------------------------------------------------------

e-------------------------------------------------------------------------
B--9--9----6--7--9----6--9--7--6--7---------------------------------------
G-------------------------------------------------------------------------
D-------------------------------------------------------------------------
A-------------------------------------------------------------------------
E-------------------------------------------------------------------------

e-----------6----------6----------6--9------------------------------------
B-----7--9-------7--9-------7--9------------------------------------------
G--8----------------------------------------------------------------------
D-------------------------------------------------------------------------
A-------------------------------------------------------------------------
E-------------------------------------------------------------------------

e--------------------6----------------------------------------------------
B--9--9--------8--9-------------------------------------------------------
G-------------------------------------------------------------------------
D-------------------------------------------------------------------------
A-------------------------------------------------------------------------
E-------------------------------------------------------------------------

e--------------6----------6----------6--9---------------------------------
B--7--6--7--9-------7--9-------7--9---------------------------------------
G-------------------------------------------------------------------------
D-------------------------------------------------------------------------
A-------------------------------------------------------------------------
E-------------------------------------------------------------------------

e------------------------9--7--6------------------------------------------
B--9--9----6--7--9----6-----------7----6----7-----------------------------
G-------------------------------------------------------------------------
D-------------------------------------------------------------------------
A-------------------------------------------------------------------------
E-------------------------------------------------------------------------

e--6--6--7--6----6pb7--6pb7r6--------6---------7b9r7g6--------------------
B-------------9---------------------------9-------------------------------
G-------------------------------------------------------------------------
D-------------------------------------------------------------------------
A-------------------------------------------------------------------------
E-------------------------------------------------------------------------

e-------------------------------------------------------------------------
B--9----9----6----6----7----7---------------------------------------------
G-------------------------------------------------------------------------
D-------------------------------------------------------------------------
A-------------------------------------------------------------------------
E-------------------------------------------------------------------------
Login or Register to remove this ad.

8 comments on Connect

Mahoutsukai!!!

5

This Song I was just thinking of it and if anyone had tabbed this yet because I really wanted to play it.(For the audio can't you just upload the mp3 file?)Anyway great tab!!XD

My apologies, I had something

My apologies, I had something of the sort attached but it didn't seem to make it through my breaking of the uploader.

Is someone net.stalking you

Is someone net.stalking you and rating all your tabs 1-star, or are they doing that to everyone? (I haven't bothered checking, since ratings don't mean very much, but I'm kind of curious now.)

I'm pretty sure it's just me.

I'm pretty sure it's just me. I checked some the tabs that were released also in my 5-block slot and they're all rated normally (or not at all). This is the most interesting of them all: http://www.gametabs.net/another/anamnesis. 3 1-stars! I'm not really bothered by it though. It's fun checking to see if the 1-star guy showed up or not.

Haha, yeah! You have a fan!

Haha, yeah! You have a fan! xD

I think its a little

I think its a little disheartening to be give those ratings, even though ratings don't mean much really like auri said. I think a few of us others have been being given 4 star ratings for a lot of recent tabs, like bassist, alfa, d-string and myself but not so harsh as 1 star :/

Awesome tab for guitar

5

Awesome tab for electric guitar, however i dont understand the G what exactly that means? 7b9r7g6

That's just a grace note -

That's just a grace note - you can think of it like optional notes or some kind of embellishment that you can play if you wish