Answer (Dissidia: Final Fantasy) Guitar Tab

Submitted: Feb 27, 2009 by Vyre

4
Average: 4 (1 vote)
Download | Listen
Game: Dissidia: Final Fantasy
Composer(s): Takeharu Ishimoto
Style: Transcription
Series: Final Fantasy

AutoScroll: Slow | Medium | Fast
Answer

From the videogame Dissidia: Final Fantasy
Composed by Takeharu Ishimoto
Tabbed by Vyre
Made on 19-02-2009

I tried to match the spacing with the song's time structure, but I believe listening to it
is more than encouraged.

This is my first tab, so any criticism will be well recieved.

e-------------------3--------------------5--3---------------------------------------
B--6--5-3---6--5-6------6--5-3--5---6--5--------6-6---5---3-3-5-----6-6-5---3-5-6---
G---------------------------------------------------------------5-----------------5-
D-----------------------------------------------------------------------------------
A-----------------------------------------------------------------------------------
E-----------------------------------------------------------------------------------

e--------------3-5-----------3-----------------------------------------------|
B--6-6-5-6-5-6------5--6-5-6-------------------------------------------------|
G----------------------------------------------------------------------------|
D----------------------------------------------------------------------------|
A----------------------------------------------------------------------------|
E----------------------------------------------------------------------------|

Repeat.

Login or Register to remove this ad.