A Flower Blooming In The Slums (Crisis Core: Final Fantasy VII) Guitar Tab

Submitted: Dec 11, 2008 by Shru (Last updated: Dec 13, 2009)

5
Average: 5 (10 votes)
Download | Listen
Game: Crisis Core: Final Fantasy VII
Composer(s): Takeharu Ishimoto
Style: 2 or more instruments, Transcription
Series: Final Fantasy

AutoScroll: Slow | Medium | Fast
                        A Flower Blooming in the Slums                          


                                                               Takeharu Ishimoto
Guitar 1

                      E   E   H.              E   E  H.            
E||-------|-------|----------10------------|--8-------------------|
B||-------|-------|------10----------------|-----10---------------|
G||-------|-------|--11--------------------|---------9------------|
D||-------|-------|------------------------|----------------------|
A||-------|-------|------------------------|----------------------|
E||-------|-------|------------------------|----------------------|


   E   E   E  E   E   E   E  E      H        H             E  E  H.            
----------10--9--12--10------9--|---------------------|-----------------------|
------10-----------------12-----|--10-----------------|----------3------------|
--11----------------------------|------------9--------|-------2---------------|
--------------------------------|---------------------|-----------------------|
--------------------------------|---------------------|--3g5------------------|
--------------------------------|---------------------|-----------------------|


  E  E  H        E  S  S     H         E  E  E  E     W                 
--------------------------|------------------------|-------------------|
--1-----------------------|------------------------|-------------------|
-----2--------------------|------------------------|-------------------|
--------2--------L--------|-----------/3--2--0--2--|--0----------------|
--------------------5s-7s-|--5---------------------|-------------------|
--------------------------|------------------------|-------------------|


  W                   H.           E  E       H        Q    E  E   
-------------------|---------------------|------------------------|
-------------------|---------------------|------------------------|
-------------------|---------------------|------------------------|
--0----------------|---------------0--2--|--2g4-------------4--5--|
-------------------|---------------------|------------------------|
-------------------|---------------------|------------------------|


    H        Q    E  E     E   E  H        Q       S  S  H        E  E   E   
------------------------|-----------------------|---------------------------|
------------------------|-----------------------|---------------------------|
------------------4--6--|--7s--4--4--------0----|--2s-4s-2--------L---------|
--5g7-------------------|-----------------------|--------------------7s--4--|
------------------------|-----------------------|---------------------------|
------------------------|-----------------------|---------------------------|


  H        S  Q.     S    H        Q    S  S E     H        S  Q.     S  
-----------------------|------------------------|-----------------------|
-----------------------|------------------------|-----------------------|
-----------4S-6------L-|--4--------2----2s-4-2--|-----------2s-4------L-|
-----------------------|------------------------|--0--------------------|
--4--------------------|------------------------|-----------------------|
-----------------------|------------------------|-----------------------|


  H.           E  E     H        S  Q.     S    E.   S  H        E  E   
---------------------|-----------------------|-------------------------|
---------------------|-----------------------|-------------------------|
--2------------2-----|-----------4s-6------L-|--4s---6s-2--------4--6--|
------------------4--|-----------------------|-------------------------|
---------------------|--4--------------------|-------------------------|
---------------------|-----------------------|-------------------------|


  W                   Q     Q    Q    Q       H        H         
-------------------|-------10----9----7----|--5--------2--------|
-------------------|-----------------------|--------------------|
--7----------------|--------7----6----4----|--2-----------------|
-------------------|-----------------------|-----------4--------|
-------------------|-----------------------|--------------------|
-------------------|-----------------------|--------------------|


  Q     Q    Q    Q       Q.      E   H           Q     Q    Q    Q     
-------10----9----7----|--9------14--14--------|-------10----9----7----|
-----------------------|-----------------------|-----------------------|
--------7----6----4----|--6------11--11--------|--------7----6----4----|
-----------------------|-----------------------|-----------------------|
-----------------------|-----------------------|-----------------------|
-----------------------|-----------------------|-----------------------|


  H        H           H.           E  E     E  E  E   H        E   
--5-----------------|---------------3--5--|--7--5--3--10-----------|
-----------5--------|---------------------|------------------------|
--2-----------------|---------------0--2--|--4--2--0---7-----------|
--------------------|---------------------|------------------------|
--------------------|---------------------|------------------------|
--------------------|---------------------|------------------------|


  H        E  E  E  E     W                   Q     Q    Q    Q     
-----------7--5--2--3--|--2----------------|-------10----9----7----|
-----------------------|-------------------|-----------------------|
-----------4--2-----0--|-------------------|--------7----6----4----|
-----------------4-----|--0----------------|-----------------------|
-----------------------|-------------------|-----------------------|
-----------------------|-------------------|-----------------------|


  H        Q.     S S    E  E  E  H        E     H        H         
--5-------------------|-----------------------|--3--------7--------|
-----------5------5-7-|--8--7--5--3--------L--|--------------------|
--2-------------------|-----------------------|--------------------|
-----------2----------|-----------------------|--------------------|
----------------------|-----------------------|--------------------|
----------------------|-----------------------|--------------------|


           ^                         
  Q.       H        E                
-----------------------|-----------||
---------<>7--------L--|-----------||
---------<>7--------L--|-----------||
---------<>7--------L--|-----------||
-----------------------|-----------||
-----------------------|-----------||


Guitar 2



     E  E  E  H        E     E  E  E  H        E     E  E  E  H        E   
E||--------0--2--------L--|-----------------------|--------0--2--------L--|
B||--------3--3--------L--|--------0--1--------L--|--------3--3--------L--|
G||-----2-----------------|--------0--0--------L--|-----2-----------------|
D||--0--------------------|-----2-----------------|--0--------------------|
A||-----------------------|--0--------------------|-----------------------|
E||-----------------------|-----------------------|-----------------------|


  E  E  E  H        E     E  E  E  H        E     E  E  E  H        E   
-----------------------|--------0--2--------L--|-----------------------|
--------0--1--------L--|--------3--3--------L--|--------0--1--------L--|
--------0--0--------L--|-----2-----------------|--------0--0--------L--|
-----2-----------------|--0--------------------|-----2-----------------|
--0--------------------|-----------------------|--0--------------------|
-----------------------|-----------------------|-----------------------|


  E  E  E  S E  E.  Q       E  E  E.  E  S E  Q       E  E  E  S E  S E  Q     
--------0--2-2--0---2----|------------3--0----3----|-------------1--1----1----|
--------3--3-3--3---3----|--------1---1-------1----|--------3----3--3----3----|
-----2-------------------|--------0---0-------0----|--------3----3--3----3----|
--0----------------------|-----2-------------------|-----3--------------------|
-------------------------|--0--------------0-------|--1--------1------1-------|
-------------------------|-------------------------|--------------------------|


  E  E  E  S E  S E  Q       E  E  E  E  E  E  E  E     W                 
-------------3--3----3----|--------------0-----------|-------------------|
--------3----3--3----3----|--------3--------3--------|-------------------|
--------3----3--3----3----|-----------2--------2-----|-------------------|
--------5----5--5----5----|-----4-----------------4--|-------------------|
-----5--------------------|--5-----------------------|--5----------------|
--3--------3------3-------|--------------------------|-------------------|


  Q    E  S E  E  S Q       Q    E  S E  E  S Q       Q    E  S E  E  S Q     
------------2-------2----|------------2-------2----|-------------------------|
-------3----3--3----3----|-------2----2--2----2----|------------3-------3----|
-------4----4--4----4----|-------2----2--2----2----|-------4----4--4----4----|
-------4----4--4----4----|-------4----4--4----4----|-------5----5--5----5----|
--2-------2-------2------|-------4----4--4----4----|-------5----5--5----5----|
-------------------------|--2-------2-------2------|--3-------3-------3------|


  Q    E  S E  E  S Q       Q    E  S E  E  S Q       Q    E  S E  E  S Q     
-------2----3--2--2-2----|------------2-------2----|------------2-------2----|
-------3----3--3--3-3----|-------2----2--2----2----|-------2----2--2----2----|
-------2----2--2--2-2----|-------2----2--2----2----|-------2----2--2----2----|
--0-------0--------------|-------4----4--4----4----|-------4----4--4----4----|
-------------------------|-------4----4--4----4----|-------4----4--4----4----|
-------------------------|--2-------2-------2------|--2-------2-------2------|


                            ^                                           
  Q    E  S E  E  S Q       W                   Q    E  S E  E  S Q     
-------------------------|--3----------------|------------2-------2----|
------------3-------3----|--3----------------|-------2----2--2----2----|
-------4----4--4----4----|--4----------------|-------2----2--2----2----|
-------5----5--5----5----|--5----------------|-------4----4--4----4----|
-------5----5--5----5----|--5----------------|-------4----4--4----4----|
--3-------3-------3------|--3----------------|--2-------2-------2------|


                                                 v                      
  Q    E  S E  E  S Q       E  E  E  E  Q.     S S    W                 
------------2-------2----|--------------3------L-3-|--L----------------|
-------2----2--2----2----|--3-----------3------L-3-|--L----------------|
-------2----2--2----2----|--4-----------4------L-4-|--L----------------|
-------4----4--4----4----|--5--5--5--5--5------L-5-|--L----------------|
-------4----4--4----4----|--5--5--5--5--5------L-5-|--L----------------|
--2-------2-------2------|--3--3--3--3--3------L-3-|--L----------------|


  Q    E  S E  E  S Q       E  E  E.  S S S E  Q       Q    E  S E  E  S Q     
-------2----2--2----2----|--------3---3--------3----|-------2----2--2----2----|
-------3----3--3----3----|--------3---3-3-3----3----|-------2----2--2----2----|
-------2----2--2----2----|--------4---4-4-4----4----|-------2----2--2----2----|
--0-------0-------0------|--------5---5-5-5----5----|-------4----4--4----4----|
-------------------------|-----5---------------5----|-------4----4--4----4----|
-------------------------|--3---------------3-------|--2-------2-------2------|


  E  E  E.  S S S E  Q       Q    E  S E  E  S Q       E  E  Q    E  E  Q     
--------3---3--------3----|-------------------------|------------------------|
--------3---3-3-3----3----|-------5-------5----5----|------------------------|
--------4---4-4-4----4----|-------6----6--6----6----|--------0----------2----|
--------5---5-5-5----5----|-------7----7--7----7----|--------0----------2----|
-----5---------------5----|-------7----7--7----7----|-----2--2-------4--4----|
--3---------------3-------|--5-------5-------5------|--3----------5----------|


  v                                                                        
  Q    E  Q.     E  E     E  E  E  E  H           E  E  E  E  E  E  E  E   
--3--------------------|-----------------------|-----------3--2-----------|
--3--------------------|-----------------------|--------3--------5--3-----|
--4-------4------------|--------0--------------|-----2-----------------2--|
--5-------5------------|-----2-----2-----------|--0-----------------------|
--5-------5------------|-----------------------|--------------------------|
--3----3---------3--2--|--0--------------------|--------------------------|


                       ^                                            
  Q    H.              Q.     E  Q    Q       E  E  E  H        E   
--------------------|------------5---------|-----------3--------L--|
--------------------|--5---------5---------|-----------3--------L--|
--------------------|--6------6------------|-----------4--------L--|
--0-----------------|--7-------------------|-----------5--------L--|
--------------------|--7-------------------|-----5-----------------|
--------------------|--5-------------------|--3--------------------|


                                   ^                         ^             
  E  E  Q    E  E  E  E     Q.     E  E  E  E  E     E  Q    H        E    
--------0----------------|---------2--------0--2--|----------2--------L--||
----------------------3--|--L------3-----3--------|--3-------3--------L--||
-------------------4-----|---------2--2-----------|-----2----2--------L--||
----------------5--------|---------0--------------|----------0--------L--||
-------------------------|------------------------|----------------------||
--3--0-------3-----------|------------------------|----------------------||


Duration Legend
---------------
W - whole
H - half
Q - quarter
E - 8th
S - 16th
T - 32nd
X - 64th
. - note dotted
|-n-|  - n-tuplets


Tablature Legend
----------------
L - tied note
g - grace note
NH - natural harmonic
s - legato slide
/ -  slide into from below or out of upwards
< - fade in
^ - brush up
v - brush down
Login or Register to remove this ad.

10 comments on A Flower Blooming In The Slums

Wow. Just wow ^^

5

Wow. Just wow ^^

yay!

Awesome tab =D i've been looking everywhere for this. tyyy so much xD

Nice =D

Nice =D

Nice =D

Nice =D

Whow!!!

Beautiful! It's really well done, man!

Peace...

5

Nicely done...

:)

im a noob here. how do you read the first tabs. are they the fret numbers?

Here is a simple guide. The

Here is a simple guide. The first 11 means that you play the 11th fret on the third string from the top, if that helps.

oh okay.. but is there any

oh okay.. but is there any other way to play it? it's too high

Epic!

5

One of the most beautiful songs from Final Fantasy and this is a fantastic tab! Thank you really much for uploading it :D