Ads

The Molentary Express (Professor Layton and the Diabolical Box) Guitar Tab

Submitted: Oct 01, 2020 by coobs (Last updated: Oct 02, 2020)

5
Average: 5 (5 votes)
Download | No audio :(
Game: Professor Layton and the Diabolical Box
Composer(s): Tomohito Nishiura
Style: Arrangement, Fingerstyle
Series: Professor Layton

AutoScroll: Slow | Medium | Fast
4/4
bpm=120
capo 1 

     Q    E  E  E  E  Q       E  E  E  E  E  E  E  E     E  E  E  E  E  E  E  E
E||------------------------|--------------------------|--------------------------|
B||--0----------------0----|--------0--1--0-----0-----|--3-----0-----0-----3-----|
G||*------0-----2----------|--2--0-----------2--------|-----------2--------------|
D||*-0-------4-----4--1----|--------------2--------2--|-----2--2--------2-----2--|
A||------------------------|--------------3-----------|--------3-----------------|
E||--3----------------3----|--------------------------|--------------------------|


  Q    E  E  E  E  Q       E  E  E  E  E  E  E  E     E  E  E  E  E  E  E  E
------------------------|--------------------------|--------------------------|
--0----------------0----|--------0--1--0-----0-----|--3-----0-----0-----3-----|
-------0-----2----------|--2--0-----------2--------|-----------2--------------|
--0-------4-----4--1----|--------------2--------2--|-----2--2--------2-----2--|
------------------------|--------------3-----------|--------3-----------------|
--3----------------3----|--------------------------|--------------------------|

  Q    E  E  E  E  Q       E  E  E  E  Q    E  E     E  E  Q     E  E  E  E
----------0--2--3-------|-----------0--2----------|--------3----------------|
-------3--------0--7----|--------0--1-------0-----|--3----------0-----3-----|
-------0-----2----------|----------------------2--|----------------2--------|
-------0--4-------------|-----7-------------------|-----2----------------2--|
------------------------|--6-----------3----------|--------3----------------|
--3----------------3----|-------------------------|-------------------------|

  Q    E  S S E  E  Q      E  E  E  E  Q    E  E     E  E  Q    E  E  E  E
----------2-3-2--0--2---|--------5----------------|-------------------------|
------------------------|--------------3----------|--------4----------------|
-------0------0--2------|--0-----0--2--4----2-----|--0-----4----2-----0-----|
--0-------4---------0---|-----4----------------0--|-----0----------0-----0--|
------------------------|-------------------------|-------------------------|
------------------------|--------------3----------|--------3----------------|

  Q    E  E  E  E  Q       E  E  E  E  Q    E  E     E  E  Q    E  E  E  E
----------0--2--3--5----|--------7-----2----------|--------3----------0--2--|
-------3--------0-------|--------------1----------|--------1-------3--------|
-------0-----2----------|-----2--4--5-------0-----|--2----------0-----2-----|
-------0--4-------------|--1-------------------4--|-----4----------4-----4--|
------------------------|--------------3----------|--------3----------------|
--3----------------3----|-------------------------|-------------------------|

                                                     1st ending -------------||

  Q    E  E  E  E  E  E     E  E  E  E  Q    E  E     E  E  Q    E  E  E  E
--3----------5-----2-----|--------2-----3----------|-------------------------||
-------------------1--0--|-------------------3--3--|--3--3-------3--3--3--3--||
--2----------0--2--------|--2--0-----0-------2-----|--2----------2-----2----*||
-------2--4--------0-----|--------4-------------0--|-----0----------0-----0-*||
--0----------------------|-------------------------|-------------------------||
-------------------------|--------------3----------|--------3----------------||

2nd ending------------->

  E  E  Q    E  E  E  E     E  E  E  E  E  E  E  E     E  E  E S S E  E  E  E
-------------------------|--0-----------------7-----|----------5-3-------------|
--3--3-------------1--3--|--0-----0-----------------|--0-----------3-----------|
--2----------2--4--------|--------------0-----------|--------0--------0--2--0--|
-----0----------0-----0--|-----7-----7-----7-----7--|-----7--------------------|
-------------------------|--------------------------|--------------2-----------|
--------3----------------|--8-----------------8-----|--------------------------|

  E  E  E  E  E  E  E  E     E  E  E  E  E  E  E  E     E  E  E  E  E  E  E  E
--------------------------|--------------------3-----|--------------------------|
--------------------------|--1-----------------1--0--|--------------3-----------|
-----0-----0--2--0-----0--|--------0--------0--------|--2--0-----0--------0-----|
--0-----------------1-----|-----4-----4--2-----------|--------4--------4-----4--|
--------2-----------------|--0-----------------0-----|--------------------------|
--------------------------|--------------------------|--------------3-----------|

  E  E  E  E  E  E  E  E     E  E  E  E  E  E  E  E     E  E  E  E  E  E  E  E
--------------------------|--0-----------------7-----|--------------5-----------|
--------0-----------------|--0-----0-----------------|--0-----------------------|
-----2--------0--------0--|--------------0-----------|--------0--------0--2--0--|
--0--------4-----4--1-----|-----7-----7-----7-----7--|-----7-----7--------------|
--------------------------|--------------------------|--------------2-----------|
--------3-----------------|--8-----------------8-----|--------------------------|

  E  E  E  E  E  E  E  E     E  E  E  E  E  E  E  E     E  E  E  E  E  E  E  E
--------3-----------------|--3-----------------5-----|--------------3-----------|
--------------------------|--------------0--1--3-----|--0-----------------0-----|
-----0-----0--2--0-----0--|--0-----0--2-----------5--|-----2--0--2--------------|
--0-----------------0-----|-----4--------------0-----|-----------------0-----0--|
--------2-----------------|--3-----------------------|--------------------------|
--------------------------|--------------------------|--------------3-----------|

  E  E  E  E  E  E  E  E     Q    E  E  E  E  Q       W
--------------------------|------------------------|--------------------------|
--------------0-----------|--0---------------------|--------------------------|
--2-----------------2-----|-------0-----2-----0----|-(0)----------------------|
-----0-----0-----0-----0--|--0-------4-----4--0----|-(0)----------------------|
--------------------------|-------------------2----|-(2)----------------------|
--------3-----------------|--3----------------3----|-(3)----------------------|

 
Login or Register to remove this ad.

3 comments on The Molentary Express

love it! will say that time

love it! will say that time signature should be 3/4 but apart from that, very well done

Thanks! not sure how I missed

Thanks! not sure how I missed that haha. glad you enjoyed it.

Lovely work!

5

Lovely work!