Ads

Molentary Express (Professor Layton and the Diabolical Box) Guitar Tab

Submitted: Aug 13, 2010 by zen03y (Last updated: Aug 15, 2010)

5
Average: 5 (2 votes)
Download | Listen
Game: Professor Layton and the Diabolical Box
Composer(s): Tomohito Nishiura
Style: Arrangement, Fingerstyle
Series: Professor Layton

AutoScroll: Slow | Medium | Fast
Title: Molentary Express
Game: Professor Layton and the Diabolical Box
Artist: Tomohito Nishiura
Tempo = 130

Arranged/Tabbed by zen03y/xen05z on August 11th, 2010

Nylon Guitar

Legend
L - tied note
x - dead note
h - hammer on/pull off
b - bend
s - slide
~ - vibrato
g - ghost note
> - accentuated note
t - trill
M - palm mute
. - staccato
P - popping (bass)
S - slapping (bass)
+ - tapping
W - wide vibrato
< - fade in
w - whammy bar
= - tremolo picking
v - brush up
^ - brush down
V - pick stroke up
n - pick stroke down

                                                                        
D#||---------------------|----------------------|--------------0-------|
A#||-2-----------0-------|--3-----------2--3----|--2-----3--------3----|
F#||o------2--1-----1----|--------4--2----------|-----4----------------|
C#||o2-------------------|--3-------------------|--4--------4----------|
G#||-0-------------------|--0-------------------|--5-------------------|
D#||---------------------|----------------------|----------------------|

                                                                     
--------------0------||--------0--2--4--2----|--4-----------0--2----|
--2-----3--------3---||--2-----------0-------|--2-----------0-------|
-----4--------------o||--------2--1-----1----|--------2--1-----1----|
--4--------4--------o||--2-------------------|--3-------------------|
--5------------------||--0-------------------|--0-------------------|
---------------------||----------------------|----------------------|

                                              
--4-------------------|--5-----4-----4-------|
--------------0--2----|--3--------5-----5L---|
--4-----1--2----------|----------------------|
--4-------------------|--4-------------------|
--5-------------------|--5-------------------|
----------------------|----------------------|

                                                                              
--4-----------------4--5--4-----2-------|--4-----7----|--0-------------------|
--5-------------------------------------|-------------|--2-----------0-------|
----------------------------------------|-------------|--------2--1-----1----|
--------------2-------------------------|-----3-------|--2-------------------|
--------------2-------------------------|-------------|--0-------------------|
--0-----------0-----0--0--0-----0-------|--0--0--0----|--0-------------------|

                                                                     
--1-------------------|--------0--2--4--5----|--7-----------9-------|
--2-----0-------------|--2-----------0-------|--------------0-------|
-----------1--2-------|--------2--1-----1----|--6-------------------|
--3--------------0----|--2-------------------|--3-----7--6-----6----|
--0-------------------|--0-------------------|--0-------------------|
----------------------|----------------------|----------------------|

                                                                     
--4-------------------|--5--------0--2--4----|--5-----------7-------|
--------------0--2----|--3-----------0-------|--------------0-------|
--4--------2----------|-----------2-----1----|--4-----1--2-----1----|
--4-----3-------------|--4-----2-------------|-----2----------------|
--5-------------------|--5-------------------|--2-------------------|
----------------------|----------------------|----------------------|

                                                                      
--4-----------4-------|--5-----0-----0-------|--5-----0-----1-------||
--3--2--0-------------|--2-----0--2--0-------|--2-----------0-------||
-----------2--1-------|-----1-----1-----1----|-----1-----1-----2----||
--2--------------2----|--2-------------------|--2-------------------||
----------------------|--0-------------------|--0-------------------||
--0-------------------|----------------------|----------------------||

                                                                    
---------------------|----------------------|--------------0-------|
-2-----------0-------|--3-----------2--3----|--2-----3--------3----|
o------2--1-----1----|--------4--2----------|-----4----------------|
o2-------------------|--3-------------------|--4--------4----------|
-0-------------------|--0-------------------|--5-------------------|
---------------------|----------------------|----------------------|

                                                                     
--------------0------||--------0--2--4--2----|--4-----------0--2----|
--2-----3--------3---||--2-----------0-------|--2-----------0-------|
-----4--------------o||--------2--1-----1----|--------2--1-----1----|
--4--------4--------o||--2-------------------|--3-------------------|
--5------------------||--0-------------------|--0-------------------|
---------------------||----------------------|----------------------|

                                              
--4-------------------|--5-----4-----4-------|
--------------0--2----|--3--------5-----5L---|
--4-----1--2----------|----------------------|
--4-------------------|--4-------------------|
--5-------------------|--5-------------------|
----------------------|----------------------|

                                                                              
--4-----------------4--5--4-----2-------|--4-----7----|--0-------------------|
--5-------------------------------------|-------------|--2-----------0-------|
----------------------------------------|-------------|--------2--1-----1----|
--------------2-------------------------|-----3-------|--2-------------------|
--------------2-------------------------|-------------|--0-------------------|
--0-----------0-----0--0--0-----0-------|--0--0--0----|--0-------------------|

                                                                     
--1-------------------|--------0--2--4--5----|--7-----------9-------|
--2-----0-------------|--2-----------0-------|--------------0-------|
-----------1--2-------|--------2--1-----1----|--6-------------------|
--3--------------0----|--2-------------------|--3-----7--6-----6----|
--0-------------------|--0-------------------|--0-------------------|
----------------------|----------------------|----------------------|

                                                                     
--4-------------------|--5--------0--2--4----|--5-----------7-------|
--------------0--2----|--3-----------0-------|--------------0-------|
--4--------2----------|-----------2-----1----|--4-----1--2-----1----|
--4-----3-------------|--4-----2-------------|-----2----------------|
--5-------------------|--5-------------------|--2-------------------|
----------------------|----------------------|----------------------|

                                                                     
--4-----------4-------|--5-------------------|--5-----0-----1-------|
--3--2--0-------------|--2-----0-------------|--2-----------0-------|
-----------2--1-------|-----1-----2--1--2----|-----1--2--1-----1----|
--2--------------2----|--2-------------------|--2-------------------|
----------------------|--0-------------------|--0-------------------|
--0-------------------|----------------------|----------------------|

                                                            
--1-----4----|-----------------2M---|-----------------9M---|
--0-----0----|-----------2M-3M------|----------------------|
--1----------|--------2M------------|--------------11M-----|
--2----------|----------------------|--------9M-12M--------|
--0-----0----|--0M------------------|----------------------|
-------------|----------------------|--12M-----------------|

                                                                     
-----------------0M---|--------------0M-1M---|----------------------|
--------------0M------|----------------------|--------------2--3----|
-----------2M---------|-----------1M---------|----------------------|
--------0M------------|--------3M------------|-----2--3-------------|
----------------------|----------------------|--0--------2----------|
--1M------------------|--2M------------------|----------------------|

                                                                     
----------------------|-----------------1----|--2-------------------|
-----------------0----|----------------------|-----0--2-------------|
--------------1-------|--------------4-------|-----------2----------|
--------3--4----------|--3-----6-------------|--------------1-------|
-----4----------------|-----------7----------|----------------------|
--0-------------------|----------------------|-----------------0----|

                ^
-------------|--5----------|----|----||
-------------|--5----------|----|----||
-------------|--6----------|----|----||
-------------|--7L----7----|----|----||
-------------|--7----------|----|----||
--1--2--4----|--5----------|----|----||
Login or Register to remove this ad.