Morning Grace (Princess Tutu) Guitar Tab

Submitted: Dec 02, 2018 by JordanVS

5
Average: 5 (1 vote)
Download | Listen
Game: Princess Tutu
Composer(s): Kaoru Wada
Style: Arrangement, Fingerstyle

AutoScroll: Slow | Medium | Fast
Morning Grace                                             
Opening Theme
Princess Tutu
Ritsuko Okazaki
JordanVS

*Capo on the 1st fret
Tempo : 128 ~ 4/4

             ^                ^                ^                                    
     Q       H        Q       H        Q       H         Q       E  E  E  E  E  E   
E||-------|----------------|--5-------------|-----------10----|--5--------L--5-----|
B||--6----|--6--------6----|--6--------6----|--6--------------|-----------------8--|
G||-------|--7-------------|--6-------------|--7---------7----|-----------6--------|
D||-------|--8-------------|--7-------------|--8--------------|--7-----7-----------|
A||-------|----------------|----------------|-----------------|-----7--------------|
E||-------|----------------|----------------|-----------------|--------------------|


  ^                ^                ^                                                   
  H        Q       H        Q       H.              H.              E  E   E  E  E  E   
----------------|-----------5----|---------------|---------------|--9------------------|
--6--------6----|--6--------6----|--6------------|--L------------|--------10-----------|
--7-------------|--6-------------|--7------------|--L------------|---------------9-----|
--8-------------|--7-------------|--8------------|--L------------|---------------------|
----------------|----------------|--8------------|--L------------|---------------------|
----------------|----------------|--6------------|--L------------|---------------------|


                       ^                ^                ^                ^               
  E  E  E  E  E  E     H        Q       H        Q       H        Q       Q    Q    Q     
--------------------|----------------|----------------|-----------6----|-----------------|
--------------6--6--|--6--------6----|--6--------6----|--6-------------|--6---------8----|
--6-----------------|--7-------------|--6-------------|--7-------------|--6--------------|
--------7-----------|--8-------------|--7-------------|--8-------------|--7----8---------|
--------------7-----|----------------|----------------|----------------|--0--------------|
--------------------|--6-------------|--5-------------|--6-------------|-----------------|


  ^                ^                ^                ^                 ^                     
  H        Q       H        Q       H        Q       Q    Q    Q       T  T  S E  Q    Q     
----------------|----------------|-----------6----|-----------------|-----------------------|
--6--------6----|--6--------6----|--6-------------|--6----3----4----|--3h-4p-3-L------------|
--7-------------|--6-------------|--7-------------|--7--------------|--5-------L--5---------|
--8-------------|--7-------------|--8-------------|--8--------------|--5-------L--5----5----|
----------------|----------------|----------------|-----------------|--3--------------------|
--6-------------|--5-------------|--6-------------|-----------------|-----------------------|


  ^                 ^                       ^                 ^                 ^               
  Q    Q    Q       T  T  S E  Q    Q       Q    Q    Q       Q    Q    Q       H        E  E   
-------3----5----|--3h-5p-3-L--1---------|-----------------|--6----L---------|--5--------5--5--|
-----------------|--3-------L------------|-------5----6----|--3----L---------|--5-----------L--|
--2--------------|--5-------L--2----2----|--3----L---------|--0----2----3----|--6-----------L--|
--1--------------|--0---------------3----|--3----L---------|-------2----5----|--5-----------L--|
--3--------------|-----------------------|--5----L---------|-----------------|--0--------------|
--1--------------|-----------------------|--3--------------|--0--------------|-----------------|


  ^                 ^                                                                          
  Q    Q    Q       H        E   E      Q    E  E  Q       Q    Q    Q       Q    E  E  E  E   
--3----L---------|--3--------L-------|-------3----------|-----------------|-------------3--8--|
--1----L---------|---------------6---|--6-------4-------|--L--------------|--3----1--4--------|
--2----2----3----|--4--------L--(7)--|--5---------------|-----------------|-------------------|
--0----0----3----|--3--------L-------|------------------|------------5----|--3-------L--------|
-----------------|-------------------|--3---------------|--3----6---------|-------------------|
-----------------|--3----------------|-------------3----|-----------------|--1----------------|


  Q    Q    Q         Q    Q    Q       Q    Q    Q       Q    Q    Q       Q    Q    Q     
--5--------------||------------------|------------1----|-----------------|-----------------|
--4--------------||---6---------4----|--4--------------|--3--------------|-----------------|
--5---------3----||*------------3----|------------2----|------------2----|--0----2----3----|
--7----5---------||*-------5---------|-------1---------|-------3---------|-------0----3----|
-----------------||---3--------------|-----------------|--1--------------|-----------------|
-----------------||------------------|--1--------------|-----------------|--3--------------|


  Q    Q    Q       Q    Q    Q       Q    Q    Q       Q    Q    Q       Q    Q    Q     
-----------------|------------1----|-----------------|-------0----1----|--5---------3----|
--6---------4----|--4--------------|--3--------------|--3--------------|------------0----|
------------3----|------------2----|------------3----|------------2----|-------0---------|
-------5---------|-------1---------|-------3---------|-------3---------|--2--------------|
--3--------------|-----------------|--1--------------|--1--------------|-----------------|
-----------------|--1--------------|-----------------|-----------------|-----------------|


  Q    Q    Q       E  E  E  E  E  E     Q    Q    Q       Q    Q    Q       Q    Q    Q     
--3---------5----|--2-----------------|-----------------|--2---------0----|-----------------|
------------2----|--------------------|-------2----3----|-----------------|--3---------2----|
-------2---------|-----2--2-----------|--4---------4----|-----------------|-------3---------|
-----------------|-----------------4--|-------4---------|-----------------|--4--------------|
--0--------------|--5--------4--5-----|--2--------------|-------2----4----|-----------------|
-----------------|--------------------|-----------------|--2--------------|-----------------|


  Q    E  E  E  E     E  E  Q    Q       Q    Q    Q       Q    Q    Q       Q    Q    Q     
-------2-----------|------------------|-----------------|------------1----|-----------------|
----------4--------|--1---------------|--6---------4----|--4--------------|--3--------------|
--4-------L--4-----|--2----------3----|-------3----3----|-------2----2----|-------2----2----|
----------------4--|--1-----5---------|-------5----5----|-------1----1----|-------3----3----|
--2----------------|------------------|--3--------------|-----------------|--1--------------|
-------------------|--1---------------|-----------------|--1--------------|-----------------|


  Q    Q    Q       Q    Q    Q       Q    Q    Q       Q    Q    Q       Q    Q    Q     
-----------------|-----------------|------------1----|-----------------|-------0----1----|
-----------------|--6---------4----|--4--------------|--3--------------|--3--------------|
--0----2----3----|-------3----3----|-------2----2----|-------3----3----|-------2----2----|
-------0----3----|-------5----5----|-------1----1----|-------3----3----|-------3----3----|
-----------------|--3--------------|-----------------|--1--------------|--1--------------|
--3--------------|-----------------|--1--------------|-----------------|-----------------|

									1.
  Q    Q    Q       Q    Q    Q       E  E  Q    Q       Q    Q    Q       Q    Q    Q     
--5---------3----|--3---------5----|--2---------------|-----------------|--5---------3----|
-------3----3----|-------5----5----|------------------|-------2----3----|-------0----0----|
-------4----4----|-------6----6----|-----2--2---------|--4----2----4----|-------0----0----|
--2--------------|-----------------|--------4----4----|-------4----4----|--2--------------|
-----------------|--0--------------|--5---------------|--2--------------|-----------------|
-----------------|-----------------|------------------|-----------------|-----------------|


  Q    Q    Q       Q    Q    E  E     Q    Q    Q       Q    Q    Q       Q    Q    Q     
--2---------0----|--1----3-------0--|--0----1---------|-----------------|------------3----|
-------2----2----|-------1----1-----|-------0----0----|--3----4---------|--L----4----4----|
-------2----2----|-------2----2-----|-------0----0----|-------5---------|-------5---------|
-----------------|--0---------------|-----------------|------------5----|-----------------|
--0--------------|------------------|-----------------|--3--------------|--3--------------|
-----------------|------------------|--3--------------|-----------------|-----------------|


   ^                                         ^                    ^                 
   Q     Q     Q        Q     Q     Q        Q     Q     Q        Q     Q     Q     
--11----------------|--11----------------|--10----------------|---9----------------|
--10----10----------|--------10----------|--11----------------|--10----------------|
--10----------10----|--------------10----|--10----------10----|--10----------10----|
--------------------|--------------------|--------12----------|--------11----------|
---8----------------|--------------------|--------------------|--------------------|
--------------------|--------------------|--------------------|--------------------|


   ^                    ^                    ^                    ^                 
   Q     Q     Q        Q     Q     Q        Q     Q     Q        Q     Q     Q     
--10----------------|---9----------------|--10----------------|---9----------------|
--11----------------|--10----------------|--11----------------|--10----------------|
--10----------------|--10-----9----12----|--10----------10----|--10----------10----|
--------12----12----|--------11----------|--------12----------|--------11----------|
--------------------|--------------------|--------------------|--------------------|
--------------------|--------------------|--------------------|--------------------|


   ^                                        ^                    ^                
   E  E   E  E  E  E     E  E  Q    Q       Q    E  E  E  E      Q    Q     Q     
--10------------------|------------------|-------------3--3--|---8---------------|
--11-----11-----6-----|--3-----3----4----|--3----------------|--10----8----10----|
--10-----10-----7-----|--3---------------|--5----5--5--------|---8----------L----|
----------------------|------------------|--5----5-----5-----|-------------------|
----------------------|------------------|--3----------------|---8---------------|
----------------------|------------------|-------------------|-------------------|


  ^                          ^                 ^                 ^                 ^               
  T  T  S E  E  E  E  E      Q    Q    Q       Q    Q    Q       H        E  E     Q    Q    Q     
--3h-5p-3-L--------5--5--|--10--------------|--6----L---------|--5--------5--5--|--3----L---------|
-------------6-----------|--11----5----6----|--3----L---------|--5-----------L--|--1----L---------|
--5-------L--7--7--------|--10--------------|--0----2----3----|--6-----------L--|--2----2----3----|
--0----------7-----7-----|------------------|-----------------|--5-----------L--|--0--------------|
-------------------------|--10--------------|-----------------|--0--------------|-----------------|
-------------------------|------------------|--0--------------|-----------------|-----------------|


  ^                                                         ^                 ^                 
  H        E   E      Q    E  E  Q       Q    Q    Q        Q    Q    Q       Q    Q    Q       
--3--------L-------|-------3----------|-----------------|--10----8----5----|--5---------------||
---------------6---|--6-------4-------|--L---------4----|--10--------------|--4---------------||
--4--------L-------|--5---------------|-----------------|--10--------------|--5----0----3----*||
--3--------L--(5)--|------------------|-------5---------|------------------|--3--------------*||
-------------------|--3---------------|--3--------------|---8---------3----|------------------||
--3----------------|-------------3----|-----------------|------------------|------------------||


2.                                                                             ^                  
  E  E  E  E  E  E     Q    Q    Q       Q    Q    Q       Q    Q    Q       E  E  E  E  E  E   
--2-----------------|-----------------|--5---------3----|--5--------------|--------------------|
--------3--2--------|-------2----3----|-------0----0----|------------2----|--3--------L--------|
-----2--2-----2-----|--4----2----4----|-------0----0----|-------0----0----|--2-----L--2--4--5--|
-----------------4--|-------4----4----|--2--------------|-------2----2----|--0--4--5-----------|
--5-----------------|--2--------------|-----------------|--0--------------|--0-----L-----------|
--------------------|-----------------|-----------------|-----------------|--------------------|


                                                                              |---3---|             
  E  E  E  E  E  E      Q    Q    Q       Q    Q    Q       Q    Q    Q       E   E   E  Q    Q     
--------------5--6--|---7--------------|--5--------------|--3--------------|-----------------------|
--3--5--7--8--------|-------------7----|------------5----|-----------------|--7h--8p--7--6----7----|
--------------------|-------------7----|-------4----7----|------------5----|-------------7----7----|
--------------------|--------9---------|--0--------------|-------2---------|--0--------------------|
--------------------|--10--------------|-----------------|--0--------------|-----------------------|
--------------------|------------------|-----------------|-----------------|-----------------------|


                                                        |---3---|                                
  Q    Q    Q       Q    Q    Q       Q    Q    Q       E   E   E  Q    Q        Q    Q    Q     
--8--------------|--7--------------|--5--------------|--3h--5p--3--2----3----|---7--------------|
------------8----|------------7----|------------3----|-----------------------|-------------7----|
-------5---------|-------5---------|-------4---------|-------------4----4----|-------------7----|
-----------------|--0--------------|--5--------------|--0--------------------|--------9---------|
--7--------------|-----------------|-----------------|-----------------------|--10--------------|
-----------------|-----------------|-----------------|-----------------------|------------------|


                                      |---3---|                                                  
  Q    Q    Q       Q    Q    Q       E   E   E  Q    Q       Q    Q    Q       Q     Q    Q     
--5--------------|--3--------------|-----------------------|--8--------------|--8---------------|
------------5----|-----------------|--7h--8p--7--6----7----|------------8----|-------------9----|
-------4----7----|------------5----|-------------7----7----|-------5---------|------------------|
--0--------------|-------2---------|--0--------------------|-----------------|-------10---------|
-----------------|--0--------------|-----------------------|--6--------------|--7---------------|
-----------------|-----------------|-----------------------|-----------------|------------------|


  Q     Q     Q        E  E  E  E  E  E     Q    Q    Q       Q    Q    Q       Q    Q    Q     
--8----------------|--10-----------------|--3---------0----|------------5----|--2--------------|
-------------10----|--10-----------1--3--|--1--------------|--7--------------|--0--------------|
-------------------|--11--0--2--4--------|------------0----|--5---------5----|------------0----|
-------10----------|---------------------|-------2---------|-------7---------|-------0---------|
--8----------------|---------------------|--0--------------|--5--------------|-----------------|
-------------------|---------------------|-----------------|-----------------|--3--------------|


  Q    E  E  Q       Q    Q    Q       Q    Q    Q       E  E   E   E   E   E     E  E  Q    Q     
-------------0----|--3---------0----|------------5----|------------------------|--3--5--7----9----|
----------3-------|--1--------------|--8--------------|--7----------3---5---7--|--------8----7----|
-------4----------|------------0----|--5---------5----|-----4---5--------------|------------------|
--2---------------|-------2---------|-------7---------|------------------------|--------0----0----|
------------------|--0--------------|--5--------------|--------(5)-----(5)-----|------------------|
------------------|-----------------|-----------------|--3---------------------|--3---------------|


   Q     E  E   Q        Q     Q     Q       Q    E  E   Q       Q    Q    Q     
--10-----L--8--------|---------8----------|--8----L--6--------|--3--------------|
---8-----L-----11----|--10----------------|--6----L-----10----|--3--------------|
---8-----L-----------|---------8----------|--7----L-----------|--3--------------|
---------------------|--10----10----10----|-------------------|-----------------|
--------10-----10----|---8----------------|-------8------8----|-------5----5----|
---8-----------------|--------------------|--6----------------|--3--------------|


  E  E  E  E  E  E     E  E  Q    Q       Q    E  E  E  E     Q    Q    E  E     Q    Q    Q     
--------------------|--------3----5----|--6----------------|------------5--6--|--8--------------|
--4-----------3--4--|--6-----4----6----|--6-------------1--|--3----4----6-----|--8--------------|
--3--------5--2--3--|--5---------------|--7----3--2--3-----|------------------|--0--------------|
-----------5--------|--3--3--3----3----|-------0-----0-----|-------0----0-----|-------0---------|
--3--3--3-----------|------------------|-------------------|--1---------------|------------3----|
--------------------|------------------|--6----------------|------------------|-----------------|


  |--3--|                                                                                         
  E  E  E  E  E  E  E     Q    Q    Q       Q    Q    Q       Q    E  E  E  E     Q    Q    Q     
-----------------------|--3---------1----|--1---------3----|--0----------------|-----------------|
-----------------1-----|-------1----1----|-------0----0----|-------3--1--0--3--|--1----0----1----|
-----------2-----------|-------2----2----|-------0----0----|-------0-----0-----|--2----0----2----|
--------0-----0-----0--|--0--------------|-----------------|-------------------|-----------------|
-----2-----------------|-----------------|-----------------|--3----------------|--0--------------|
--3--------------------|-----------------|--3--------------|-------------------|-----------------|


  Q    E  E  E  E     Q    Q    Q       Q    E  E  E  E     Q    Q    Q       Q    Q    Q     
--3----3--0--------|--1---------3----|--0----------------|--0----2----3----|--7---------5----|
-------1-----3--1--|--0----0----0----|--0----1--3--0-----|-------0----0----|-------5----5----|
-------2-----2-----|-------0----0----|-------0--------0--|-------0----0----|-------6----6----|
--0----------------|-----------------|-------------------|--2--------------|--4--------------|
-------------------|-----------------|--3----------------|--3--------------|-----------------|
-------------------|--3--------------|-------------------|-----------------|-----------------|


   Q    Q    Q       E  E  Q    Q       Q    Q    Q       Q    Q    Q       Q    Q    Q     
-------------7----|--4---------------|-----------------|--4--------------|--0--------------|
--10---------7----|--5---------------|-------4----5----|------------7----|------------4----|
--------8----8----|-----4--4---------|--6----4----6----|------------6----|-------5---------|
--------7---------|--------6----6----|-------6----6----|-------6---------|--6--------------|
------------------|--7---------------|--4--------------|-----------------|-----------------|
---7--------------|------------------|-----------------|--4--------------|-----------------|


  Q    E  E  E  E     E  E  Q    Q       E  E  E  E  Q       E  E  E  E  Q       E  E  E  E  Q     
-------4-----------|------------------|--3-----------1----|--1-----------3----|--0----------------|
----------6--------|--3----------1----|--------1-----1----|--------0-----0----|--------0-----0----|
--6----L-----6-----|--4-----2---------|-----2-----2-------|-----0-----0-------|-----0-----0-------|
----------------6--|--3---------------|--0----------------|-------------------|-------------------|
--4----------------|------------------|-------------------|-------------------|--3----------------|
-------------------|--3---------------|-------------------|--3----------------|-------------------|


  E  E  E  E  Q       E  E  E  E  Q       E  E  E  E  Q       E  E  E  E  Q       E  E  E  E  Q     
-------------------|--3-----------1----|--1-----------3----|--0----------------|--0-----2-----3----|
--------0-----1----|--------1-----1----|--------0-----0----|--------1-----1----|--------0-----0----|
--2-----0-----2----|-----2-----2-------|-----0-----0-------|-----0-----0-------|-----0-----0-------|
-----2-----2-------|--0----------------|-------------------|-------------------|-------------------|
--0----------------|-------------------|-------------------|--3----------------|--3----------------|
-------------------|-------------------|--3----------------|-------------------|-------------------|


  E  E  E  E  Q        E  E  E  E  Q       E  E  Q    Q       Q    Q    Q       Q    E  E  Q     
--7-----------5----|---------------7----|--4---------------|-----------------|--7----------5----|
--------5-----5----|--10-----------7----|--5---------------|-------4----5----|-------5--7-------|
-----6-----6-------|---------8-----8----|-----4--4---------|--6----4----6----|-------6-----6----|
--4----------------|------7-----7-------|--------6----6----|-----------------|--4---------------|
-------------------|--------------------|--7---------------|--4--------------|------------------|
-------------------|---7----------------|------------------|-----------------|------------------|


                           NH                                                                       
  E  E  E   E   Q          Q    E  E  E  E     Q    Q    Q       Q    E  E  Q       Q    Q    Q     
--9------------11----|--<>12----------------|-----------------|--0---------------|------------2----|
--7-----7--10--------|--<>12----------------|--3--------------|--0----0----------|-------3----3----|
-----8---------------|----------------1-----|--2--------------|-------1-----1----|--2----2---------|
--------7-------7----|----------2--4--------|-------4----4----|-------------2----|--4--------------|
---------------------|----------------------|--2----2----2----|------------------|--2----2----2----|
--7------------------|-----0----0--0--0-----|-----------------|--0----0--0--0----|-----------------|


  Q    E  E  Q       Q    Q    Q       Q    E  E  Q       Q    Q    Q       E  Q    E  E  E   
--4---------------|--2--------------|--4---------------|------------5----|--4-------4--4-----|
--5---------------|--3--------------|--5----5----------|-------7----7----|--5-------5--5-----|
--4---------------|--4--------------|-------4-----4----|--7----7---------|--4-------4--4-----|
-------6--6--6----|-------4----4----|-------------6----|--7--------------|-------------------|
-------7--7--7----|--2----2----2----|------------------|-----------------|-------------------|
--0---------------|-----------------|--0----0--0--0----|--7----7----7----|--0-------0--0-----|


  Q    H          
--4-------------||
--5-------------||
--4-------------||
----------------||
----------------||
--0-------------||




Duration Legend
---------------
W - whole
H - half
Q - quarter
E - 8th
S - 16th
T - 32nd
X - 64th
. - note dotted
|-n-|  - n-tuplets


Tablature Legend
----------------
L - tied note
x - dead note
g - grace note
(n) - optional note
> - accentuded note
NH - natural harmonic
h - hammer on
p - pull off
^ - brush up
v - brush down
Login or Register to remove this ad.