Ads

The Young Man From the East (Princess Mononoke) Guitar Tab

Submitted: May 15, 2013 by Colin_spade

5
Average: 5 (5 votes)
Download | Listen
Game: Princess Mononoke
Composer(s): Joe Hisaishi
Style: Arrangement, Fingerstyle, Natural harmonics

AutoScroll: Slow | Medium | Fast
                          The Young Man From The East                           


                                                                     Joe Hisashi
Track 1

Piano Arr. Hitomi Kawata

Guitar Arr. Colin_spade



              ^                                 ^              
     H        H           H        Q    Q       H        Q     
E||--------------------|----------------0----|----------------|
B||--------------------|---------------------|--3--------1----|
G||-----------4--------|-----------2---------|--3--------0----|
D||--2--------2--------|---------------------|--3-------------|
A||--2--------0--------|--4------------------|--1--------3----|
E||--0-----------------|--2------------------|----------------|


  Q    Q    Q    Q    E  E     H        Q    Q    Q    Q     
-------0--------------------|-------------------------------|
------------3----L----------|-------------------------------|
--2-------------------------|--0-------------0----2---------|
--2-------------------2--3--|--3--------3--------------0----|
--0-------------------------|--3--------1----3---------3----|
----------------------------|----------------1---------3----|


  H        E  E  E  E     E  E  E  E     E  E  E  E  E  E  E  E   
-----------------------|-----------0--|--0-----------------------|
--------------------0--|--------------|--------3-----------1--0--|
-----------------------|--------2-----|--------2-----------4-----|
--2--------------2-----|-----2--------|-----------------0-----0--|
--2-----------2--------|--------------|-----3-----3--------------|
--0--------------------|--------------|--1-----------3-----------|


  E  E  E  E  E  E  E  E     E  E  E  E  E  E  E  E   
-----------------0-----0--|--3-----------------0--3--|
--------1--0--------1-----|-----3-----3--------------|
-----0--2-----2--2--0-----|--------0-----2-----0-----|
--2--2--------------------|--2-----------0-----------|
--0-----------------------|--------------------3-----|
--------------------------|--------------------------|


  E  E  E  E  E  E  E  E     E  E  E  E  E  E  E  E   
--------0--3--------------|-----------------------0--|
--3-----0-----1--0--0-----|--------------------------|
--2-----------0--------0--|--2-----------------2-----|
--0-----2-----------2-----|--0--2-----------2--------|
--------------------------|--0-----3--2--3-----------|
--------------3-----------|--------------------3-----|


  E  E  E  E  E  E  E  E     E  E  E  E  E  E  E  S S  
--0-----------------------|-----------0-----0-----0---|
--------3-----------1--0--|--------1--0--------3------|
--------2-----------4-----|-----0--2-----2--2--0--0---|
-----------------0-----0--|--2----------------------3-|
-----3-----3--------------|--0--3---------------------|
--1-----------3-----------|---------------------------|


                                           NH   NH   NH            
  E  E  E  E  E  E  Q       E  E  E  E     S    S    S  S S S S S  
--3-----0--0--2-----3----|--0-----------<>12--------------0-------|
-----0-------------------|-------------------<>12-----------0-----|
--------------------4----|------------------------<>12-11-----0---|
--2--------------4-------|--2-----------------------------------4-|
--------------2----------|-----2----------------------------------|
-------------------------|--------3--2-----0---------0--------0---|


  Q    S S S S    E  E  E  E  E  E  E  E     E  E  E  E  E  E  S S S S  
-------------1-|--3--------------------6--|--3-----------------------3-|
-------1-3-4---|-----------------6--6-----|----------------------4-6---|
---------------|--------------------------|--------------------5-------|
--2------------|--------------------------|----------------------------|
--2------------|--------------------------|--3--3--3--3--3--3--3---3---|
--0------------|--4--4--4--4--6--6--6--6--|----------------------------|


  E  E  E  E   E  E  E   E      E  E   E  E  E  E  E  E   
--6-------------------------|--11-----10-----8-----6-----|
---------------------8--11--|----------------------------|
--------------10------------|----------------------------|
--0--0--0--0----------------|----------------0--0--0--0--|
---------------8--8--8---8--|---8--8---8--8--------------|
----------------------------|----------------------------|


  E  E  E  E  E  E  E  E      E  Q    S S  E   E  E   S S  
--8-----------------6--8--|--10-----------10------8--10---|
--------------------------|-------------------10----------|
--0--0--0--0--0--0--0--0--|---0------------0--------------|
--------------------------|-------------------------------|
--6--6--6--6--6--6--6--6--|---0--0----0-0--0---0------0-0-|
--------------------------|-------------------------------|


     ^                  
     W                  
--<>12----------------||
--<>12----------------||
--<>12----------------||
----------------------||
----------------------||
-----0----------------||




Duration Legend
---------------
W - whole
H - half
Q - quarter
E - 8th
S - 16th
T - 32nd
X - 64th
. - note dotted
|-n-|  - n-tuplets


Tablature Legend
----------------
L - tied note
x - dead note
g - grace note
(n) - ghost note
> - accentuded note
NH - natural harmonic
AH - artificial harmonic
TH - tapped harmonic
SH - semi harmonic
PH - pitch harmonic
h - hammer on
p - pull off
b - bend
br - bendRelease
pb - preBend
pbr - preBendRelease
brb - bendReleaseBend
\n/ - tremolo bar dip
\n - tremolo bar dive
-/n - tremolo bar Release up
/n\ - tremolo bar inverted dip
/n - tremolo bar return
-\n - tremolo bar Release down
S - shift slide
s - legato slide
/ -  slide into from below or out of upwards
\ -  slide into from above or out of downwards
~ - vibrato
W - wide vibrato
tr - trill
TP - tremolo picking
T - tapping
S - slap
P - pop
< - fade in
^ - brush up
v - brush down
Login or Register to remove this ad.