Ads

The Tatara Women Work Song (Princess Mononoke) Guitar Tab

Submitted: Dec 22, 2012 by Basisti94 (Last updated: Dec 22, 2012)

5
Average: 5 (8 votes)
Download | Listen
Game: Princess Mononoke
Composer(s): Joe Hisaishi
Style: Arrangement, Fingerstyle

This song is also called タタラ踏む女達ーエボシ タタラうたー

AutoScroll: Slow | Medium | Fast
                                The Tatara Women Work Song / Tatara Fumu Onna-tachi
                                
Princess Mononoke / Mononoke Hime OST
Composed by Joe Hisaishi
Arranged for guitar by Basisti94 (Miro Laaksonen)
22.12.2012


     ^                                                                  
     W                   Q    E  E  E.  S E  E     H        Q    E  E   
E||--0----------------|----------------------0--|----------------0--3--|
B||--1----------------|----------1--3---1-3-----|--3-------------------|
G||--0----------------|--0----2-----------------|----------------------|
D||--2----------------|-------------------------|--0-------------------|
A||--3----------------|--3----------------------|-----------2----------|
E||-------------------|-------------------------|--3-------------------|


  E.  S E  E  Q    E  E     E.  S E  E  H           Q    E  E  E.  S E  E   
--5---5-3----------------|--0---0----------------|----------------------0--|
-----------5--3-------3--|--------1--------------|----------1--3---1-3-----|
-------------------5-----|--0--------2--0--------|--0----2-----------------|
--3----------------------|-----------------------|--2----------------------|
-------------------------|--3--------------------|--3----------------------|
-------------------------|-----------------------|-------------------------|


  H        Q    E  E     Q    E  E  E.  S S E.     E.  S E  E  H         
----------------0--3--|--5----8--7--5---5-3-5---|--------------3--------|
--3-------------------|-------------------------|--5---5-3--5-----------|
----------------------|-------------------------|-----------------------|
--0-------------------|-------------------------|-----------------------|
-----------2----------|--3----------------------|--3--------------------|
--3-------------------|-------------------------|-----------------------|


  Q    E  E  Q    E  E     H.           E  E     Q    E  E  E  S S E  E   
----------0--3----5--8--|--7------------0--3--|--5----3------------------|
--1----3----------------|---------------------|----------5--3--5-3-1-----|
--0---------------------|--0------------------|-------------0---------2--|
--2---------------------|---------------------|--3-----------------------|
--0---------------------|--7------------------|-------------3------------|
------------------------|---------------------|--------------------------|


  H.           E  E     E  E  E  E  E  S S E  E     E  E  E  E  E  E  E  E   
---------------------|------------------------0--|--------------------0--3--|
--1------------------|-----------1--3----1-3-----|--3-----------------------|
--0------------------|--0-----2------------------|--------0--0--------0--0--|
--0------------------|--------2--2---------2--2--|--------------------------|
--3------------------|-----3-----------3---------|--------------------------|
------------------3--|---------------------------|-----3-----------3--------|


  E  S S E  E  E  E  E  E     E  S S E  E  E  E  E  E   
--5----5-3-----------------|--0----0-------------------|
------------5--3--------3--|---------1-----------------|
---------------------5-----|------------2--0-----------|
---------3--3--------3--3--|---------2--2--------2--2--|
-----3------------3--------|-----3------------3--------|
---------------------------|---------------------------|


  E  E  E  E  E  S S E  E     E  E  E  E  E  E  E  E   
------------------------0--|--------------------0--3--|
-----------1--3----1-3-----|--3-----------------------|
--0-----2------------------|--------0--0--------0--0--|
--------2--2---------2--2--|--------------------------|
-----0-----------0---------|--------------------------|
---------------------------|-----3-----------3--------|


  E  E  E  E  E  S S S S E     E  S S E  E  E  E  E  E   
--5-----8--7--5----5-3-5----|---------------3-----------|
----------------------------|--5----5-3--5--------------|
----------------------------|---------------------------|
--------3--3---------3---3--|---------5--5--------5--5--|
-----3-----------3----------|-----3------------3--------|
----------------------------|---------------------------|


  E  E  E  E  E  E  E  E     E  E  E  E  E  E  E  E   
--------------3-----5--8--|--7-----------------------|
--------3--5--------------|--------------------5--8--|
--5-----------------------|--------------------------|
--------2--2--------2-----|--------------------------|
-----0-----------0-----7--|--------7--7--------7--7--|
--------------------------|-----0-----------0--------|

                              ^
  E  E  E  E  E  S S E  E     W                  
--5-----3------------------|-------------------||
-----------5--3--5-3-------|--1----------------||
---------------------5--2--|--0----------------||
--------3--3---------3--3--|--0----------------||
-----3-----------3---------|--3----------------||
---------------------------|--3----------------||

If you are able, you could palm mute those bass notes after halfway through to
get more similar sound with the original song.


Duration Legend
---------------
W - whole
H - half
Q - quarter
E - 8th
S - 16th
T - 32nd
X - 64th
. - note dotted
|-n-|  - n-tuplets
Login or Register to remove this ad.