Ads

Main Theme (Princess Mononoke) Guitar Tab

Submitted: Nov 29, 2011 by Pasto

5
Average: 5 (4 votes)
Download | Listen
Game: Princess Mononoke
Composer(s): Joe Hisaishi
Style: Transcription

AutoScroll: Slow | Medium | Fast
Title : Main Theme
Anime : Princess Mononoke
Author : Joe Hisaishi
Tabbed By : Pazto


E|----0------0-------------0-------0--|-3---------------|------0--0-----------0-------0--|
B|------------------3-----------------|-----3~----------|--------------3-----------------|
G|-2----------------------------------|-----------------|-2------------------------------|
D|------------------------------------|-----------------|--------------------------------|
A|------------------------------------|-----------------|--------------------------------|
E|------------------------------------|-----------------|--------------------------------|


E|-3~--------0------3---|-5---5---5-----------5--|-3-------------0--------|--------------0---------------------|
B|----------------------|------------------------|--------3---------------|-3---3--3------------3--------------|
G|----------------------|------------------------|------------------------|----------------------------2-------|
D|----------------------|------------------------|------------------------|------------------------------------|
A|----------------------|------------------------|------------------------|------------------------------------|
E|----------------------|------------------------|------------------------|------------------------------------|


E|-0------|-------0---0---------0---0----3------|-----------------|-------0--0----------0-------0--|
B|--------|--------------3----------------------|----3~-----------|--------------3-----------------|
G|--------|----2--------------------------------|-----------------|-2------------------------------|
D|--------|-------------------------------------|-----------------|--------------------------------|
A|--------|-------------------------------------|-----------------|--------------------------------|
E|--------|-------------------------------------|-----------------|--------------------------------|


E|-3~--------0------3---|-5---5---5---------5----|-3-------------0--------|--------------0--------------------------|
B|----------------------|------------------------|--------3---------------|-3---3--3------------3-------------1~----|
G|----------------------|------------------------|------------------------|----------------------------2----2-------|
D|----------------------|------------------------|------------------------|-----------------------------------------|
A|----------------------|------------------------|------------------------|-----------------------------------------|
E|----------------------|------------------------|------------------------|-----------------------------------------|


E|--------|-5--5--5--7-----5-------5---|----8----7------0-----|--------3-------0-----------0---|
B|--------|----------------------------|----------------------|-3----------------------3-------|
G|--------|----------------------------|----------------------|--------------------------------|
D|--------|----------------------------|----------------------|--------------------------------|
A|--------|----------------------------|----------------------|--------------------------------|
E|--------|----------------------------|----------------------|--------------------------------|


E|-7---7--7---8-----7~-------3------|----8------7-------0-----0-|-5---3---1------3--------|
B|----------------------------------|---------------------------|-------------------------|
G|----------------------------------|---------------------------|-------------------------|
D|----------------------------------|---------------------------|-------------------------|
A|----------------------------------|---------------------------|-------------------------|
E|----------------------------------|---------------------------|-------------------------|


E|---------0-------3------|-5------8-------7------0------3------|-5~--------0------3-----|
B|------------------------|-------------------------------------|------------------------|
G|------------------------|-------------------------------------|------------------------|
D|------------------------|-------------------------------------|------------------------|
A|------------------------|-------------------------------------|------------------------|
E|------------------------|-------------------------------------|------------------------|


E|-5------8----7---0------3---|----5~-----------|
B|----------------------------|-----------------|
G|----------------------------|-----------------|
D|----------------------------|-----------------|
A|----------------------------|-----------------|
E|----------------------------|-----------------|


Login or Register to remove this ad.

3 comments on Main Theme

EEEEEEXXXXXXXCCCCCCCEEEEEEEEE

EEEEEEXXXXXXXCCCCCCCEEEEEEEEEELLLLLLLLLEEEEEEEEEEENNNNNNNNNTTTTTTTTTT!!!!!!!!!!

fantastic

5

this was great i am intrigued

This is a great song

This is a great song, thanks for making it man. Also it is super easy to play.