Ads

The Demon God II (Princess Mononoke) Guitar Tab

Submitted: Sep 25, 2013 by Basisti94

5
Average: 5 (4 votes)
Download | Listen
Game: Princess Mononoke
Composer(s): Joe Hisaishi
Style: Arrangement, Fingerstyle

This song is also called The Lost Mountain

AutoScroll: Slow | Medium | Fast
                The Demon God II
                                
Princess Mononoke
Joe Hisaishi
Guitar arrangement by Basisti94 (Miro Laaksonen)
21.9.2013


 Tempo ~ 92
     >            >  >     >            >        >     >           >    
     H.           E  E     H.           Q        Q     H        E  S S  
E||---------------------|--------------------|-------------------------|
B||---------------------|--------------------|-------------------------|
G||--2------------2--2--|--5------------7----|--11----10--------L--7-8-|
D||--2------------2--2--|--5------------7----|--11----10--------L--7-8-|
A||--0------------0--0--|--3------------5----|---9-----8--------L--5-6-|
E||---------------------|--------------------|-------------------------|


  >                   >            >  >     >            >     
  W                   H.           E  E     H.           Q     
-------------------|---------------------|--------------------|
-------------------|---------------------|--------------------|
--9----------------|--2------------2--2--|--5------------7----|
--9----------------|--2------------2--2--|--5------------7----|
--7----------------|--0------------0--0--|--3------------5----|
-------------------|---------------------|--------------------|


   >     >           >      >     >                                     
   Q     H        E  E      Q     H.              Q    Q    Q    E  E   
------------------------|----------------------|-----------------------|
------------------------|----------------------|--5----4---------------|
--11----10--------L--9--|--13----12------------|-----------------4--5--|
--11----10--------L--9--|--13----12------------|-----------------------|
---9-----8--------L--7--|--11----10------------|--0----0----0----0--0--|
------------------------|----------------------|-----------------------|


  Q    Q    Q    E  E     E  E  E  E  Q    E  S S    Q    Q    Q    E  E   
-----------------------|--------------------------|--------------------4--|
-----------------------|-----4-----3--7-------4-5-|--6--------------------|
--6----0---------------|--------------------------|-----------------------|
-----------------------|--4-----------------------|-----------------------|
--0----0----0----0--0--|--0-----0-----0----0--0---|--0----0----0----0--0--|
-----------------------|--------------------------|-----------------------|


  Q    E  E  Q    E  E     S S E  Q    Q    E  E     S S S S Q    E  S S E  E   
------------------------|-------------------------|--------1-4-------3-2-1--5--|
--3-------7----------4--|-------------------------|----1-3---------------------|
-------------5----------|--2-3-4--L---------------|--2-------------------------|
------------------------|-------------------------|----------------------------|
--0----0-----0----0--0--|--0------0----0----0--0--|--0-------0----0------0--0--|
------------------------|-------------------------|----------------------------|


                          >            >  >     >            >     
  Q    Q    Q    E  E     H.           E  E     H.           Q     
--L--------------------|---------------------|--------------------|
-----------------------|---------------------|--------------------|
-----------------------|--2------------2--2--|--5------------7----|
-----------------------|--2------------2--2--|--5------------7----|
--0----0----0----0--0--|--0------------0--0--|--3------------5----|
-----------------------|---------------------|--------------------|


   >     >           >      >                   >                  
   Q     H        E  S S    W                   W                  
-------------------------|-------------------|-------------------||
-------------------------|-------------------|-------------------||
--11----10--------L--7-8-|--9----------------|--2----------------||
--11----10--------L--7-8-|--9----------------|--2----------------||
---9-----8--------L--5-6-|--7----------------|--0----------------||
-------------------------|-------------------|-------------------||




Duration Legend
---------------
W - whole
H - half
Q - quarter
E - 8th
S - 16th
T - 32nd
X - 64th
. - note dotted
|-n-|  - n-tuplets


Tablature Legend
----------------
L - tied note
x - dead note
g - grace note
(n) - ghost note
> - accentuded note
NH - natural harmonic
AH - artificial harmonic
TH - tapped harmonic
SH - semi harmonic
PH - pitch harmonic
h - hammer on
p - pull off
b - bend
S - shift slide
s - legato slide
/ -  slide into from below or out of upwards
\ -  slide into from above or out of downwards
~ - vibrato
W - wide vibrato
tr - trill
TP - tremolo picking
T - tapping
S - slap
P - pop
< - fade in
^ - brush up
v - brush down
Login or Register to remove this ad.