Ads

Ashitaka and San (Princess Mononoke) Guitar Tab

Submitted: Jan 13, 2014 by Basisti94

5
Average: 5 (5 votes)
Download | Listen
Game: Princess Mononoke
Composer(s): Joe Hisaishi
Style: Arrangement, Fingerstyle

This song is also called Ashitaka to San

AutoScroll: Slow | Medium | Fast
                        Ashitaka and San
                                
Princess Mononoke
Joe Hisaishi
Guitar arrangement by Basisti94 (Miro Laaksonen)
11.1.2014

---------------------------
This probably my favourite piece from pretty much any soundtrack ever.
After multiple attemps, I finally go it working on guitar.
----------------------------


Capo 1
Tempo ~ 76

     ^                   ^                                             
     W                   W                   E  E  E  E  E   E  E  E   
E||--3----------------|--5----------------|---------------------------|
B||--5----------------|--5----------------|---------------------1-----|
G||--7----------------|--7----------------|--------0-----2p--0-----2--|
D||-------------------|-------------------|-----2-----2---------------|
A||-------------------|--3----------------|--3------------------------|
E||-------------------|-------------------|---------------------------|


  E  E  E  E  E   E  E  E     E  E  E  E  E   E  E  E   
---------------------------|---------------------------|
------------------------1--|--1------------------1--3--|
--------0-----2p--0--0-----|--------0-----2p--0--------|
-----2-----2---------------|-----2-----2---------------|
--3------------------------|--3------------------------|
---------------------------|---------------------------|


                              ^                        
  E  E  E  E  E   E  E  E     E  E  E  E  E  E  E  E   
-----0--0---------------0--|--3-----------------------|
--3------------------1-----|--3-----3-----------1--3--|
--------0-----2p--0-----2--|--------------0--------0--|
-----2-----2---------------|-----3-----3-----3--------|
--3------------------------|--3-----------------------|
---------------------------|--------------------------|


  E  E  E  E  E   E  E  E     E  E  E  E  E  E  E  E   
--0------------------0--3--|--8--------8--8--7--0--3--|
---------------------------|--------5-----------0-----|
--------0-----2p--0--------|-----5-----------------0--|
-----2-----2---------------|--------------5-----------|
--3------------------------|--0-----------------------|
---------------------------|--------------------------|


                             ^           ^            
  E  E  E  E  E  E  E  E     E  E  E  E  E  E  E  E   
--5-----3--1--3-----------|--0-----------0-----------|
--------------------1--3--|--1--------1--1-----3--1--|
--------------------0-----|--2-----2-----2-----------|
--------------------------|--0--4--------0--3--------|
-----3-----------3--------|--------------------------|
--1-----------0-----------|--------------------------|


  E  E   E  E  E  E  E  E     E  E  E  E  E   E  E  E   
---------------------------|---------------------------|
--3------------3--0-----1--|--1------------------1--3--|
------------2--------0-----|--------0-----2p--0--------|
-----0h--3-----------------|-----2-----2---------------|
---------------------------|--3------------------------|
--3------------------------|---------------------------|


                              ^                        
  E  E  E  E  E   E  E  E     E  E  E  E  E  E  E  E   
-----0--0---------------0--|--3-----------------------|
--3------------------1-----|--3-----3-----------1--3--|
--------0-----2p--0-----2--|--------------0--------0--|
-----2-----2---------------|-----3-----3-----3--------|
--3------------------------|--3-----------------------|
---------------------------|--------------------------|


  E  E  E  E  E   E  E  E     E  E  E  E  E  E  E  E   
--0------------------0--3--|--8--------8--8--7--0--3--|
---------------------------|--------5-----------0-----|
--------0-----2p--0--------|-----5-----------------0--|
-----2-----2---------------|--------------5-----------|
--3------------------------|--0-----------------------|
---------------------------|--------------------------|


                             ^           ^            
  E  E  E  E  E  E  E  E     E  E  E  E  E  E  E  E   
--5-----3--1--3-----------|--0--------------0--------|
--------------------1--3--|--1--------1--3-----3-----|
--------------------0-----|--2-----2-----4-----------|
--------------------------|--0--3-----------------3--|
-----3-----------3--------|--------------------------|
--1-----------0-----------|--------------3-----------|


  ^                                                    
  E  E  E  E  E   E  E  E     E  E  E  E  E  E  E  E   
---------------------------|--1--0--------------3--0--|
--1---------------------1--|--------3--1--3-----------|
--0-----0-----2p--0--------|--------------0--------0--|
-----2-----2---------2-----|-----------------3--------|
--3------------------------|--------------------------|
---------------------------|--1-----------------------|


  E  E  E  E  E  E  E  E     E  E  E  E  E  E  E  E   
--------------------------|--1--0--------------3--5--|
--3--------------------3--|--------3--1--3-----0-----|
--------------0-----2-----|--------------0-----------|
-----0--2--3-----3--------|-----------------3--------|
--------------------------|--------------------------|
--3-----------------------|--1-----------------------|


  E  E  E  E  E  E  E  E     E  E  E  E  E  E  E  E   
--3--------------0--3--0--|-----------------0--3--0--|
--------------------0-----|--3-----------------0-----|
-----------0--2--0-----0--|--------2-----------------|
--------2-----------------|-----------------0-----0--|
-----2--------------------|-----3-----3--------------|
--0-----------------------|--1-----------3-----------|


  ^                                                          
  E  E  E  E  E  E  E  E     E   E   E   E  E   E   E   S S  
-----------------8--7--5--|--8--10--10------8---------------|
--1-----------0-----------|------------------------11--10-9-|
--2-----2-----------------|-------------10-----10-----------|
--2--2-----2--------------|--8------------------------------|
--0-----------------------|---------------------------------|
--------------------------|---------------------------------|


                                                                ^            
  Q    Q    Q    Q       E  E  E  E  E  E  E  E     E  E  E  E  E  E  E  E   
-----------------5----|--3-----------------------|-----0--------------------|
-------5----6----6----|--------------------1--3--|--3-----1--0--1--------1--|
-------5----5---------|--------0-----2--0--------|--------1-----2-----2-----|
----------------------|-----2-----2--------------|--------------3--------3--|
----------------------|--3-----------------------|-----3-----------3--------|
--3----3----3----3----|--------------------------|--0-----------1-----------|


  E  E  E  E  E  E  E  E     E  E  E   E  E  E  E  E   
--------------------------|------------------0--1--5--|
--1--3--0-----------------|---------------------------|
--2--------2--1--3--0-----|--0-----0h--2--------------|
--0--------------------3--|-----0---------------0-----|
--------------------------|---------------------------|
--------------1-----------|--3------------3-----------|


  E  E  E  E  E  E  E   E      E   E  E  E     E  E  E  E  E  E  E  E   
--3-----------------8--10--|--10--12--8--7--|--8-----------7--------0--|
-----------------8---------|----------------|-----------5--------0-----|
--------0-----0------------|----------------|--------5--------0--------|
-----2-----2---------------|----------------|-----7--------------------|
--3------------------------|----------------|--0-----------------------|
---------------------------|---0------------|--------------3-----------|


  E  E  E  E  E  E  E  E     E  E  E  E  E  E  E  E     E  E  E  E  Q    Q     
--5--------------5--3--1--|--3--------3--3-----1-----|--0--------0--0---------|
--------------------------|--------1-----------------|-------------------3----|
--------2-----------------|--------0--------2-----2--|--------2-----0---------|
--------------------------|--------------0-----------|-----0-----0------------|
-----3-----3--------------|-----3--------------------|------------------------|
--1-----------1-----------|--0-----------------------|--3-----------3----4----|


                             ^                                               
  E  E  E  E  E  E  E  E     E  E  E  E  Q    Q        Q     Q     H         
--------------------------|--------------0---------|--13----12----10--------|
--1-----------------------|--1--------1------------|------------------------|
-----2--0-----------------|--0-----0---------------|---------------0--------|
-----3-----3--2-----0-----|--2--2------------------|------------------------|
--0-----------------------|--3---------------------|---8--------------------|
-----------------3-----3--|------------------------|------------------------|


   Q     Q    Q     Q        Q    Q     Q     Q        H        H         
--12----10----8----------|--10----8----------------|---------------------|
-------------------10----|-------------11----10----|--10--------9--------|
-------------------------|-------------------------|---------------------|
--------------7----------|---8---------------------|---------------------|
---7---------------------|-------------------------|---7-----------------|
-------------------------|-------------------------|---------------------|


  Q    Q    Q    Q       Q    Q    Q    Q       Q    Q    Q    Q     
--1----0--------------|--0-------------------|----------------------|
------------3----0----|-------3----1---------|--3----1--------------|
--2-------------------|-----------------2----|------------3----2----|
------------0---------|------------2---------|--3-------------------|
----------------------|------------0---------|--1-------------------|
--1---------3---------|--4-------------------|----------------------|


                       ^                                                     
  H        H           E  E  E  E  E   E  E  E     E  E  E  E  E   E  E  E   
--------------------|--3------------------------|---------------------------|
--0-----------------|---------------------1-----|---------------------1-----|
--2--------1--------|--0-----0-----2p--0-----2--|--------0-----2p--0-----2--|
--------------------|-----2-----2---------------|-----2-----2---------------|
--------------------|--3------------------------|--3------------------------|
--0-----------------|---------------------------|---------------------------|


                                ^                                       
  E  E  E  E  Q    Q       Q    H.              E  E  E  E  Q    E  E   
--3----------------1----|--0-----------------|-------------------------|
--------------1---------|--------------------|--3--------0----------3--|
-----------2------------|-------1------------|--------------2----2-----|
--------2---------------|-------2------------|--------2----------------|
-----0------------------|-------2------------|-----3-------------------|
--1---------------------|-------0------------|--1----------------------|


                            ^                         
  E  E   E  E  Q    Q       E  E  E  E  E   E  E  E   
--0-----------------1----|--3------------------------|
------------0------------|---------------------1-----|
---------------2---------|--0-----0-----2p--0-----2--|
-----0h--2---------------|-----2-----2---------------|
-------------------------|--3------------------------|
--3----------------------|---------------------------|


                              ^                  
  E  E  E  E  E   E  E  E     W                  
---------------------------|--3----------------||
---------------------1-----|--3----------------||
--------0-----2p--0-----2--|--0----------------||
-----2-----2---------------|--2----------------||
--3------------------------|--3----------------||
---------------------------|-------------------||




Duration Legend
---------------
W - whole
H - half
Q - quarter
E - 8th
S - 16th
T - 32nd
X - 64th
. - note dotted
|-n-|  - n-tuplets


Tablature Legend
----------------
L - tied note
x - dead note
g - grace note
(n) - ghost note
> - accentuded note
NH - natural harmonic
AH - artificial harmonic
TH - tapped harmonic
SH - semi harmonic
PH - pitch harmonic
h - hammer on
p - pull off
b - bend
S - shift slide
s - legato slide
/ -  slide into from below or out of upwards
\ -  slide into from above or out of downwards
~ - vibrato
W - wide vibrato
tr - trill
TP - tremolo picking
T - tapping
S - slap
P - pop
< - fade in
^ - brush up
v - brush down
Login or Register to remove this ad.

2 comments on Ashitaka and San

this is awesome! and guitar

5

this is awesome! and guitar friendly c: thank you for sharing x3

beautiful

5

beautiful