Primrose Theme (Octopath Traveler) Guitar Tab

Submitted: Aug 18, 2018 by guitarsvd (Last updated: Aug 19, 2018)

5
Average: 5 (3 votes)
Download | No audio :(
Game: Octopath Traveler
Composer(s): Yasunori Nishiki
Style: Arrangement, Artificial harmonics, Fingerstyle, Natural harmonics, Tremolo

Click here for a video example.

AutoScroll: Slow | Medium | Fast
               Primrose the Dancer                               


                                                  Arr. by Cecil Chau (GuitarSVD)
Track 1



     E  E  E  E  E  E     E  E  E  E  E  E     E  E  E  E  E  E   
E||--------3-----3-----|--------2-----2-----|--------3-----3-----|
B||-----5-----5-----5--|-----3-----3-----3--|-----5-----5-----5--|
G||-----4-----4-----4--|-----4-----4-----4--|-----5-----5-----5--|
D||--------------------|--------------------|--------------------|
A||--------------------|--2-----------------|--3-----------------|
E||--0-----------------|--------------------|--------------------|


  E  E  E  E  E  E     E  E  E  E  E  E     E  E  E  E  E  E   
--------3-----3-----|--------5-----5-----|--------2-----2-----|
-----3-----3-----3--|-----5-----5-----5--|-----3-----3-----3--|
-----4-----4-----4--|-----5-----5-----5--|-----2-----2-----2--|
--------------------|--------------------|--0-----------------|
--------------------|--0-----------------|--------------------|
--3-----------------|--------------------|--------------------|


  E  E  E  E  E  E     E  E  E  E  E  E     E  E  E  E  E  E   
--------3-----3-----|--------2-----0--2--|--3--------5--3-----|
-----0-----0-----0--|-----0-----0-----0--|-----5-----5-----5--|
-----0-----0-----0--|-----2-----2--------|-----4-----4-----4--|
--------------------|--------------------|--------------------|
--------------------|--2-----------------|--------------------|
--3-----------------|--------------------|--0-----------------|


  E  E  E  E  E  E     E  E  E  S S E  E     E  E  E  E  E  E   
--------7-----------|--0--------2-0-------|--------------------|
--7-----------7-----|-----1-----1---3-----|--0--------------0--|
-----7-----7-----7--|-----0-----0------0--|-----0-----0--2--0--|
-----7-----7-----7--|---------------------|-----0-----0-----0--|
--------------------|--3------------------|--------------------|
--7-----------------|---------------------|--3-----------------|


  E  E  E  E  E  E     E  E  E  E  E  E     E  E  E  S S E  E   
--------------0-----|--2-----3-----2-----|--0--------2-0-------|
--1--0--1--3--------|-----3-----3-----3--|-----1-----1---3-----|
-----2-----2-----2--|-----4-----4-----2--|-----0-----0------0--|
-----2-----2-----2--|--------------------|---------------------|
--0-----------------|--2-----------------|--3------------------|
--------------------|--------------------|---------------------|


  E  E  E  E  E  E     E  E  E  E  E  E     E  E  E  E  E  E   
--0-----------------|--------------0--2--|--3--------5--3-----|
--------------------|-----------0--------|-----5-----5-----5--|
-----0-----0-----0--|-----0-----0-----0--|-----4-----4-----4--|
-----2-----2-----2--|-----2-----2-----2--|--------------------|
--------------------|--------------------|--------------------|
--0-----------------|--0-----------------|--0-----------------|


  E  E  E  E  E  E     E  E  E  S S E  E     E  E  E  E  E  E   
--------7-----------|--0--------2-0-------|--------------------|
--7-----------7-----|-----1-----1---3-----|--0--------------0--|
-----7-----7-----7--|-----0-----0------0--|-----0-----0--2--0--|
-----7-----7-----7--|---------------------|-----0-----0-----0--|
--------------------|--3------------------|--------------------|
--7-----------------|---------------------|--3-----------------|


  E  E  E  E  E  E     E  E  E  E  E  E     E  E  E  S S Q     
--------------0-----|--2-----3-----5-----|--7--------8-7-5----|
--1-----L--3--------|-----3-----3-----3--|-----0-----0--------|
-----2-----2-----2--|-----2-----2-----2--|-----0-----0--------|
-----2-----2-----2--|--0-----------------|--------------------|
--0-----------------|--------------------|--------------------|
--------------------|--------------------|--3------------5----|


  E  E  E  E  E  E     E  E  E  E  E  E      E  E  E  E  E  E   
--7-----------------|--3--------5--7-----|--10-----7-----------|
-----------------7--|-----5-----5-----5--|---------------7-----|
-----------8--9-----|-----4-----4-----4--|------7-----7-----7--|
-----7-----7-----7--|--------------------|------7-----7-----7--|
-----9-----9-----9--|--------------------|---------------------|
--7-----------------|--0-----------------|---7-----------------|


  E  E  E  S S E  E     E  E  E  E  E  E     E  E  E  E  E  E   
--0--------2-0-------|--------------------|--------------0-----|
-----1-----1---3-----|--0--------------0--|--1--0--1--3--------|
-----0-----0------0--|-----0-----0--2--0--|-----2-----2-----2--|
---------------------|-----0-----0-----0--|-----2-----2-----2--|
--3------------------|--------------------|--0-----------------|
---------------------|--3-----------------|--------------------|


  E  E  E  E  E  E     E  E  E  S S E  E     E  E  E  E  E  E   
--2-----3-----2-----|--0--------2-0-------|--0-----------5--7--|
-----3-----3-----3--|-----1-----1---3-----|-----------5--------|
-----4-----4-----2--|-----0-----0------0--|-----0-----0-----0--|
--------------------|---------------------|-----2--------------|
--2-----------------|--3------------------|--------------------|
--------------------|---------------------|--0-----------------|


  E  E  E  E   E  E     E  E   E  E  E  E     E  E  E  S S Q     
--8-----------10--8--|--7-----12-----7-----|--5--------7-5------|
--5--------5---------|--0------------------|--1-----1------8----|
--------5------------|-----0------0-----0--|-----2--------------|
-----7---------------|---------------------|--------------------|
--0------------------|---------------------|--------------------|
---------------------|--3------------------|--1-----------------|


  E  E  E  E  E  E     E  E  E  E  Q       E  E  E  E  E  E   
--0-----------------|--1--0--1--3--5----|--------5-----8-----|
-----------1--------|--------3----------|--5-----------------|
--------0-----0-----|-----2-----2--5----|--5--5-----5-----5--|
-----2-----------2--|--0----------------|--5--5-----5-----5--|
--3-----------------|-------------------|--0-----------------|
--------------------|-------------------|--------------------|


  E  E  E   E  E   E     E  E  E  E   E  E     E  E  E  E    Q     
--7-------------------|--7--------0------7--|--8------------------|
--7--------10--9--10--|--------------10-----|-----------5---------|
--------8-------------|--------9------------|--------5-----<>5----|
-----9----------------|-----9---------------|-----7---------------|
----------------------|---------------------|--0------------------|
--7-------------------|--0------------------|---------------------|


  E  E  E  E    Q       E  E  E  E    Q       E  E  E  E    Q     
--7------------------|--5------------------|--3------------------|
-----------0--<>0----|-----------1---------|-----------1---------|
--------0------------|--------2-----<>2----|--------0-----<>0----|
-----0---------------|-----3---------------|-----2---------------|
---------------------|---------------------|--3------------------|
--3------------------|--1------------------|---------------------|


  E  E  E  E  Q       E  E  E  E  E  E     Q.     Q    E     E  E  Q     E  E   
--1--0--1--3--5----|--------5-----8-----|--8--------------|--L----------10--8--|
--------3----------|--5-----------------|--4--------------|--4-----------------|
-----2-----2--5----|--5--5-----5-----5--|--4------5-------|--5-----5-----------|
--0----------------|--5--5-----5-----5--|--4-----------4--|-----4--------------|
-------------------|--0-----------------|-----------------|--------------------|
-------------------|--------------------|-----------------|--------------------|


  Q.     Q.        Q    E  E  Q       E  E  E  E  Q       Q.     E  E  E   
--7-------------|--L---------------|--L----------------|--L---------0--2--|
--4------7------|--5----4--5--4----|--L----------------|---------0--------|
--4-------------|------------------|-----5--4-----4----|--L---------------|
--4-------------|-------4----------|-----------4-------|------------------|
----------------|------------------|-------------------|------------------|
----------------|------------------|-------------------|------------------|


  E  E  E  E  E  E     E  E  E  E  E  E     E  E  E  S S E  E   
--3--------5--3-----|--2-----7-----2-----|--0--------2-0-------|
--------0-----0-----|--------------3-----|---------------3-----|
-----0-----0-----0--|-----2--7--0-----2--|--------0---------0--|
--------------------|--0-----------------|-----2---------------|
--------------------|--------------------|--3------------------|
--0-----------------|--------------------|---------------------|


  E  E  E  E    Q       E  E  E  E  Q       E  E  E  E  E  E   
---------------------|--------------0----|--2-----3-----2-----|
--0-----------<>0----|--1--0--1--3-------|-----------3--------|
-----------0---------|--------2-----2----|-----4-----------4--|
--------0------------|-----2-------------|--------------------|
-----2---------------|--0----------------|--2-----------------|
--3------------------|-------------------|--------------------|


                                          TP        TP TP     
  E  E  E  S S Q       Q.     E  E  E     E  E  E   E  E  E   
--0--------2-0------|--0---------5--7--|--8--------10--8-----|
--------1------3----|---------5--------|--------5---0--5-----|
-----0--------------|------------------|-----5------------5--|
--------------------|------------------|---------------------|
--3-----------------|------------------|--0------------------|
--------------------|--0---------------|---------------------|


  TP     TP    TP       TP          TP       TP                 
  E  E   E  E  E  E     E  E  E  E  E  E     E  E  E  E  E  E   
--7-----12-----7-----|--5-----------3-----|--0-----------------|
---------0-----0-----|-----------1--------|-----------1--------|
-----0------0-----0--|--------2-----2-----|--------0-----0-----|
---------------------|-----3-----------3--|-----2-----------2--|
---------------------|--------------------|--3-----------------|
--0------------------|--1-----------------|--------------------|


  TP TP TP TP TP       TP    TP    TP       TP       TP TP TP  
  E  E  E  E  E  E     E  E  E  E  E  E     E  E  E  E  E  E   
--1--0--1--3--5-----|--0-----5-----8-----|--7--------5--4--5--|
--------3-----6-----|--------5-----5-----|--------4-----4-----|
-----2-----2-----7--|-----2-----5-----5--|-----4-----4-----4--|
--0-----------------|--------------------|--4-----------------|
--------------------|--0-----------------|--------------------|
--------------------|--------------------|--------------------|


  TP                                               
                       |--3--|  |--3--|  |--3--|   
  E  E  E  E  E  E     E  E  E  E  E  E  E  E  E   
--7-----------5--7--|--8--------------------------|
-----------9--0--9--|-----5--5-----5--5-----5--5--|
--------9-----------|-----5--5-----5--5-----5--5--|
-----9--------------|-----7--7-----7--7-----7--7--|
--------------------|--0-----------------0--------|
--0-----------------|-----------0-----------------|


  |--3--|  |--3--|  |--3--|     |--3--|  |--3--|  |--3--|   
  E  E  E  E  E  E  E  E  E     E  E  E  E  E  E  E  E  E   
--7--------------------------|--5--------------------------|
-----0--0-----0--0-----0--0--|-----1--1-----0--0-----1--1--|
-----0--0-----0--0-----0--0--|-----2--2-----2--2-----2--2--|
-----0--0-----0--0-----0--0--|-----3--3-----3--3-----3--3--|
-----------------------------|-----------------------------|
--3--------7--------3--------|--1--------0--------1--------|


  |--3--|  |--3--|  |--3--|                 |--3--|   
  E  E  E  E  E  E  E  E  E     E  E  E  E  E  E  E   
--3--------------------------|--1--0--1--3--5--------|
-----1--1-----1--1-----1--1--|--3--3--3--3-----6--6--|
-----0--0-----0--0-----0--0--|--2--2--2--2-----7--7--|
-----2--2-----2--2-----2--2--|--0-----0-----0--------|
--3-----------------3--------|-----------------------|
-----------0-----------------|-----------------------|


  |--3--|  |--3--|  |--3--|                                       
  E  E  E  E  E  E  E  E  E     Q.     T T T T T T T  T T T  T T  
-----------5--------8--------|--8------------------------------8-|
--5-----------5--5-----5--5--|-----------------------10-----10---|
-----5--5-----5--5-----5--5--|---------------8-----8------8------|
-----7--7-----7--7-----7--7--|-------------9-----9------9--------|
--0-----------------0--------|-----------9-----9-----------------|
-----------0-----------------|--7------8-------------------------|


  H        Q       H          
--7--------7----|--5--------||
--9--------9----|--5--------||
--9--------9----|--5--------||
----------------|--7--------||
----------------|--7--------||
--0-------------|--5--------||




Duration Legend
---------------
W - whole
H - half
Q - quarter
E - 8th
S - 16th
T - 32nd
X - 64th
. - note dotted
|-n-|  - n-tuplets


Tablature Legend
----------------
L - tied note
x - dead note
g - grace note
(n) - ghost note
> - accentuded note
NH - natural harmonic
AH - artificial harmonic
TH - tapped harmonic
SH - semi harmonic
PH - pitch harmonic
h - hammer on
p - pull off
b - bend
br - bendRelease
pb - preBend
pbr - preBendRelease
brb - bendReleaseBend
\n/ - tremolo bar dip
\n - tremolo bar dive
-/n - tremolo bar Release up
/n\ - tremolo bar inverted dip
/n - tremolo bar return
-\n - tremolo bar Release down
S - shift slide
s - legato slide
/ -  slide into from below or out of upwards
\ -  slide into from above or out of downwards
~ - vibrato
W - wide vibrato
tr - trill
TP - tremolo picking
T - tapping
S - slap
P - pop
< - fade in
^ - brush up
v - brush down
Login or Register to remove this ad.