Club Leader Battle (Pokemon Trading Card Game) Guitar Tab

Submitted: Jan 21, 2019 by thunderbulb (Last updated: Feb 11, 2019)

0
Download | No audio :(
Game: Pokemon Trading Card Game
Composer(s): Ichiro Shimakura
Style: Transcription
Series: Pokemon

This song is also called Gym Battle

AutoScroll: Slow | Medium | Fast
Pokemon Trading Card Game - Gym Battle
Drop D tuning

Repeat for intro
e|-------------|-10---------------------------------10-------15-12-------------|
B|-------------|----10-13~-12-8-10--------------13~----10-13-------13-15----15~|
G|-------------|-------------------7-7~~-9~-12~--------------------------14----|
D|-------------|---------------------------------------------------------------|
A|-------------|---------------------------------------------------------------|
D|-0-0-12p0h12-|---------------------------------------------------------------|

	           x4
e|-12~-15~-|-20-22-|-------------------------------------|
B|---------|-------|-------------------------------------|
G|---------|-------|-12----12-14----14-16----16-17----17-|
D|---------|-------|----10-------12-------14-------15----|
A|---------|-------|-------------------------------------|
D|---------|-------|-------------------------------------|

e|-----------------------------------14-14~-----|
B|-15-14--------15-14-------------12------------|
G|-------14-11~-------14-11-12-14---------------|
D|----------------------------------------------|
A|----------------------------------------------|
D|----------------------------------------------|

e|----------------------------------------------|
B|-14~-14h15-17-15-14-12-12-14p12---------------|
G|--------------------------------14~-----------|
D|------------------------------------7-7-6-6---|
A|----------------------------------------------|
D|----------------------------------------------|

e|-----------------------------------14-14~-----|
B|-15-14--------15-14-------------12------------|
G|-------14-11~-------14-11-12-14---------------|
D|----------------------------------------------|
A|----------------------------------------------|
D|----------------------------------------------|

e|--------------------------------13-12h13-15-13-12----17-15p13h15~-20-22----|
B|-12-14-15-15~-14h15-17-15-14----------------------13-----------------------|
G|-----------------------------14--------------------------------------------|
D|---------------------------------------------------------------------------|
A|---------------------------------------------------------------------------|
D|---------------------------------------------------------------------------|

e|-22-20----20-----------------------------|
B|-------22----22-20-22-20-18-20-18--------|
G|----------------------------------17-19~-|
D|-----------------------------------------|
A|-----------------------------------------|
D|-----------------------------------------|
Login or Register to remove this ad.