Ads

Verdanturf Town (Pokémon Ruby & Sapphire) Guitar Tab

Submitted: May 15, 2011 by 60NCA10

5
Average: 5 (9 votes)
Download | Listen
Game: Pokémon Ruby & Sapphire
Composer(s): Junichi Masuda, Go Ichinose, Morikazu Aold
Style: Arrangement, Fingerstyle
Series: Pokemon

Click here for a video example.

AutoScroll: Slow | Medium | Fast



                POKÉMON RUBY / SAPPHRE / EMERALD
                       "Verdanturf Town"


                 Original song by: Go Ichinose
                   Fingerstyle Arrangement by:
                         Gonçalo Martins
                        February 26th 2010





  1st Part:

     H        E  E  E  E     Q    Q    Q    Q       Q    Q    Q    Q     
E||--------------------0--|----------------------|--0--------------2----|
B||-----------------------|--7--------------8----|----------------------|
G||-----------------7-----|----------------------|------------2---------|
D||--------------7--------|--0---------4---------|-----------------4----|
A||-----------------------|-------0---------0----|-------4--------------|
E||-----------------------|----------------------|--2-------------------|


  Q    Q    Q    Q       Q    Q    Q    Q       Q    E  E  Q    Q     
----------------------|-----------------0----|--7--------------------|
--2--------------3----|--0----2----3---------|-------------0---------|
----------------------|----------------------|--0-------7------------|
-------4---------4----|-------4---------4----|-------0----------0----|
--2---------1---------|--0-------------------|-----------------------|
----------------------|------------4---------|-----------------------|


  Q    Q    Q    Q       Q    Q    Q    Q       Q    Q    E  E  E  E   
-----------------2----|--0-------------------|---------------------0--|
----------------------|-------3----2----0----|--2----3----3--2--3-----|
------------1---------|----------------------|------------------------|
----------------------|----------------------|------------------------|
-------2---------2----|--0-------------------|--0---------------------|
--0-------------------|------------0---------|------------------------|




  2nd Part:

  Q    Q    Q    Q       Q    Q    Q    Q       E  E  E  E  Q    Q       E  E  E  E  E  E  E  E   
----------------------|--0--------------2----|------------------------|-----------------0--2-----|
--7--------------8----|----------------------|--3--2--0--2--3----0----|--------0--2--3--------3--|
----------------------|------------2---------|------------------------|-----3--------------------|
--0---------4---------|-----------------4----|--------4----------4----|--------4-----------4-----|
-------0---------0----|-------4--------------|--2-----------1---------|--0-----------------------|
----------------------|--2-------------------|------------------------|--------------4-----------|


  Q    E  E  Q    Q       Q    Q    Q    Q       Q    Q    Q    Q       Q    Q    E  E  E  E   
--7--------------------|-----------------2----|--0-------------------|------------3--2--3--5--|
----------3--3---------|----------------------|-------3----2----0----|--2----3----------------|
-------------4---------|------------1---------|----------------------|------------------------|
-------0----------0----|----------------------|----------------------|------------------------|
-----------------------|-------2---------2----|--0-------------------|--0---------------4-----|
--3--------------------|--0-------------------|------------0---------|-------3----0-----------|




  3rd Part:

  H.           Q       Q    Q    Q    Q       H.           Q       Q    Q    Q    Q     
--7-----------------|--0---------2----3----|--5------------2----|------------0----2----|
--8-----------------|------------3---------|--2-----------------|--3----3----2----3----|
--7------------7----|------------2---------|--2-----------------|--4----2----2----2----|
--------------------|----------------------|--------------------|--4-------------------|
--------------------|--0----0--------------|--------------------|--2-------------------|
--------------------|----------------------|--------------------|----------------------|


  H.           Q       Q    Q    Q    Q       H.           Q       Q    Q    E  E  E  E   
--3------------3----|--5----3----2----0----|--3------------5----|--2------------2--3--5--|
--3------------5----|--7---------3----2----|--3-----------------|--3---------------------|
--4-----------------|-----------------3----|--------------------|--2---------------------|
--------------------|----------------------|--------------------|--0---------------------|
--------------------|--0----0----0----1----|--2-----------------|-------4-------2--------|
--3-----------------|----------------------|---------------2----|------------2-----2-----|




  4th Part:

  H.           E  E      Q     Q     Q     Q       H.           Q       Q    Q    E  E  E  E   
--7------------L--7--|---9----10----12-----9----|--5------------2----|--7----5----3-----2-----|
--8------------L--8--|--10----------------------|--------------------|------------------------|
--0------------L-----|--------------------------|--------------------|------------------------|
---------------------|--------------------------|--------------------|------------------------|
---------------------|--------------------10----|--------------------|-------0----------0-----|
---------------------|---9-----9----------------|--2-----------------|--7------------2-----2--|




  Ending:

  Q.     Q.     Q       E  E  Q    Q    Q       Q.     Q.     Q       W                  
--2------3-----------|-----------------------|--2------3------0----|--L----------------||
--3------3------3----|--L----------0----3----|--3------3-----------|-------------------||
----------------4----|--L--0-------0----4----|---------------------|-------------------||
----------------0----|--L-----0---------0----|---------0------2----|--L----------------||
---------2-----------|-------------2---------|--0------------------|-------------------||
--0------------------|-----------------------|---------------------|-------------------||




Duration Legend
---------------
W - whole
H - half
Q - quarter
E - 8th
. - note dotted


Tablature Legend
----------------
L - tied note




Login or Register to remove this ad.

2 comments on Verdanturf Town

Excellent!

5

Loved this tune in the Ruby and Sapphire gen.. Thank you for sharing

Sounds great

5

Sounds great, good job.