Ads

Surfing Theme (Pokémon Ruby & Sapphire) Guitar Tab

Submitted: Jan 05, 2013 by BlackFox (Last updated: Sep 24, 2013)

5
Average: 5 (4 votes)
Download | Listen
Game: Pokémon Ruby & Sapphire
Composer(s): Junichi Masuda, Go Ichinose, Morikazu Aold
Style: Arrangement, Fingerstyle
Series: Pokemon

AutoScroll: Slow | Medium | Fast
Surfing theme
Pokemon RSE
Composers: Go Ichinose, Morikazu Aoki, Junichi Masuda, Hiroko Takano.
Tabbed by:Blackfox
21/09/2013
Arranged for a solo Acoustic/classical guitar with standard tuning & capo on 1st fret

3/4
    E  E   E  E E E   Q.    E  Q    Q.    E   Q     Q.    E  Q    E  E  E E E  E
||------------------|-0-----1--0--|-0-----1---0---|-0-----1--0--|-3--1--0----------|
||o-1--0---1----1-3-|-------------|---------------|-------------|---------1-3--4---|
||------------0-----|-------------|---------------|-------------|------------------|
||------------------|-------------|---------------|-------------|------------------|
||o-3-(3)-(3)-------|-3----(3)-3--|-1----(1)-(1)--|-0----(0)-0--|------------------|
||------------------|-------------|---------------|-------------|-4-(4)-----1-(1)--|


  Q.    E  Q    Q.    E   Q     Q.   E E E   Q   Q    Q
|-0-----1--0--|-0-----1---0---|-1----------|-----0----1----|
|-------------|---------------|--------0-1-|-3-------------|
|-------------|---------------|------0-----|---------------|
|-------------|---------------|------------|---------------|
|-3----(3)-3--|-1----(1)-(1)--|-0----------|---------------|
|-------------|---------------|------------|-1--(1)--(1)---|

 
  Q.    E  Q    Q.    E   E   E    Q.   E q    Q.   E E E
|-3-----3--1--|-0----(0)--0---1--|-3----3-5--|-3----1-0-3-|
|-------------|-------1--(1)-----|-----------|------------|
|-------------|------------------|-----------|------------|
|-------------|------------------|-----------|------------|
|-3----(3)-3--|-3----(3)--3--(3)-|-1------1--|-1------1---|
|-------------|------------------|-----------|------------|


  Q.    E  E  E    Q  E E E E   Q   Q   Q    Q   Q    Q
|-1-----0-----0--|-1----------|------------|----------------|
|----------3-----|------------|-1---0------|-1---3----1-----|
|----------------|------2-4-2-|---------2--|----------------|
|----------------|------------|------------|----------------|
|-0----(0)-0-(0)-|-0--2---3---|------------|----------------|
|----------------|------------|-4--(4)--3--|-1--(1)--(1)----|


  Q.    E  Q    Q.    E   E   E    Q.   E q    Q.   E E E
|-3-----3--1--|-0----(0)--0---1--|-3----3-5--|-3----1-0-3-|
|-------------|-------1--(1)-----|-----------|------------|
|-------------|------------------|-----------|------------|
|-------------|------------------|-----------|------------|
|-3----(3)-3--|-3----(3)--3--(3)-|-1------1--|-1------1---|
|-------------|------------------|-----------|------------|


  Q.    E  E  E    Q  E E E E   Q  Q  Q    Q.   E E E
|-1-----0-----0--|-1----1-3-1-|-4--3--1--|-0-------------|
|----------3-----|------------|----------|------1-0------|
|----------------|------------|----------|----------2----|
|----------------|------------|-3--2--0--|---------------|
|-0----(0)-0-(0)-|-0--2---3---|----------|-3-------------|
|----------------|------------|----------|---------------|


  Q.    E   E   E     Q.    E  E  E    Q.    E   Q     Q  Q  Q
|------------------|-----------------|---------------|----3--0---|
|-0-------------0--|--3-----0--1--3--|-1-----1---1---|-1---------|
|-------0---2------|-----------------|---------------|-----------|
|------------------|-----------------|---------------|-----------|
|------------------|-----------------|-3----(3)-(3)--|-3-----3---|
|-3----(3)-(3)-(3)-|-(3)---(3)-3-(3)-|---------------|----3------|


  Q.    E   E   E     Q.    E  E  E    Q.    E   Q     Q   Q   Q
|-0-------------0--|--3-----0--1--3--|-1-----1---1---|-1---1---1---|
|-------1---3------|-----------------|---------------|-------------|
|------------------|-----------------|---------------|-------------|
|------------------|-----------------|-0----(0)-(0)--|-0--(0)--0---|
|-4----(4)-(4)-(4)-|-(4)---(4)-------|---------------|-------------|
|------------------|-----------3-(3)-|---------------|-------------|


  Q.    E   E   E    Q.    E   E  E   Q.    E   E   E    Q   Q    Q
|------------------|----------------|------------------|---------------|
|------------------|----------------|------------------|---------------|
|-2-----2---4---2--|-0----(0)-(0)---|------------------|----------0----|
|-3----(3)-(3)-(3)-|-2-----2---0--2-|-3-----2---0---3--|-2---3---------|
|------------------|----------------|-5----(5)-(5)-(5)-|-3--(3)--(3)---|
|------------------|----------------|------------------|---------------|


  Q.    E   E   E    Q.    E   E  E   Q   Q    Q     Q  Q  Q
|------------------|----------------|--------------|-----------|
|------------------|----------------|-----0----1---|-0--1--3---|
|-2-----2---4---2--|-0----(0)-(0)-0-|-2------------|-----------|
|-3----(3)-(3)-(3)-|-2-----2---3----|--------------|-----------|
|------------------|----------------|-5--(5)--(5)--|----0--2---|
|------------------|----------------|--------------|-3---------|


  Q.    E  Q    Q.    E  Q    Q.    E  E  E    Q   Q   Q
|-0-----1--0--|-0-----1--0--|-0-----1--0-----|-----0---3---|
|-------------|-------------|-------------3--|-1-----------|
|-------------|-------------|----------------|-------------|
|-------------|-------------|----------------|-------------|
|-3----(3)-3--|-3----(3)-3--|-3----(3)-3-(3)-|-3--(3)--3---|
|-------------|-------------|----------------|-------------|


  Q.    E  E  E    Q   Q    Q     Q.    E  Q    Q   Q    Q
|----------------|--------------|-------------|---------------|
|-------------0--|-1---3----1---|-0--------0--|---------------|
|-2-----1--2-----|--------------|-------2-----|-0-------------|
|----------------|--------------|-------------|---------------|
|-0----(0)-0-(0)-|-0--(0)--(0)--|-------------|-----0----2----|
|----------------|--------------|-3----(3)-3--|-3--(3)--(3)---|


  Q.    E   Q     Q.    E   Q     Q.    E  E  E    Q   Q   Q
|-0-----1---0---|-0-----1---0---|-0-----1--0-----|-----0---3---|
|---------------|---------------|-------------3--|-1-----------|
|---------------|---------------|----------------|-------------|
|---------------|---------------|----------------|-------------|
|-3----(3)-(3)--|---------------|-3----(3)-3-(3)-|-------------|
|---------------|-3----(3)-(3)--|----------------|-4--(4)--4---|


  Q.    E  E  E    Q   Q    Q     Q.    E  E E   H.
|----------------|--------------|--------------|-------|
|-------------0--|-1---3----5---|-3-----5--3---|-0-----|
|-2-----1--2-----|--------------|------------2-|-------|
|----------------|--------------|--------------|-------|
|-0----(0)-0-(0)-|-0--(0)--(0)--|--------------|-------|
|----------------|--------------|-3----(3)-3---|-3-----|


  H     Q      Q.    E   E   E    H     Q      Q.    E   E   E
|-----------|-------------------|-----------|-------------------|
|-1----(1)--|-(1)----3---1---3--|-1----(1)--|-(1)----3---1---3--|
|-----------|-------------------|-----------|-------------------|
|-3-----3---|--3----(3)-(3)-(3)-|-----------|-------------------|
|-----------|-------------------|-3-----3---|--3----(3)-(3)-(3)-|
|-----------|-------------------|-----------|-------------------|


  Q   Q   Q    Q  Q  Q    H.           H.
|------------|----0--1--|-0--------||-^0-----*|
|-1---0---1--|-3--------|---------o||-^1-----*|
|------------|----0--1--|-0--------||--------*|
|-3--(3)--3--|-3--------|----------||--------*|
|------------|----------|---------o||-^3-----*|
|------------|----------|----------||--------*|


Duration Legend
---------------
W - whole
H - half
Q - quarter
E - 8th
S - 16th
T - 32nd
X - 64th
a - acciaccatura
+ - note tied to previous
. - note dotted
.. - note double dotted

Misc Legend
-----------
 |  - bar
||  - double bar
||o - repeat start
o|| - repeat end
*|  - double bar (ending)
 :  - bar (freetime)

Login or Register to remove this ad.

3 comments on Surfing Theme

Good job.

5

Good job.

Well done !

5

It's a pretty tune, not surprising it comes from a Pokemon game ost ^^
Btw I'm playing it Capo4 because easier on a nylon guitar & the last bars with the easiest way :

  Q  Q  Q   Q  Q  Q   H.        
|---------|----0--1-|-0--------||
|-1--0--1-|-3-------|---------o||
|---------|----0--1-|-0--------||
|-3-----3-|-3-------|----------||
|---------|---------|---------o||
|---------|---------|----------||

Thanks to share sir BlackFox, I like this tab

~ happy new year ~

didn´t noticed that

didn´t noticed that mistake... but thanks anyways!