Ads

S.S. Anne (Pokémon Red & Blue & Yellow) Guitar Tab

Submitted: Nov 06, 2012 by jiyeonn

5
Average: 5 (7 votes)
Download | Listen
Game: Pokémon Red & Blue & Yellow
Composer(s): Junichi Masuda
Style: Arrangement, Fingerstyle
Series: Pokemon

AutoScroll: Slow | Medium | Fast
SS Anne
Composed by: Junichi Masuda
Pokemon RBY

Tabbed by J. Ho, 02 Nov 2012
Tuning: Standard EADGBE
Tempo: 120

E|-------------------------1-------|-0---1--0-----------------------|---------0----1----0-------|
B|-1-------1-------3---------------|-----------3---1---3-------0----|-1---3-----------------3---|
G|-----0-------0-------0-------0---|-----------------------0--------|---------------------------|
D|---------2---------------0-------|-----------2---------------0----|---------2---------0-------|
A|-3---------------2---------------|-0------------------------------|-3------------2------------|
E|---------------------------------|-------------------3------------|---------------------------|


E|-3----1---0-------------------|-----0-------0---0---1---0---1---|-3-------------------------------|
B|--------------3---------------|---------3-----------------------|-----3---0---------------0---3---|
G|------------------0-------0---|---------------------------------|-------------2---0---2-----------|
D|------2---------------0-------|---------------------------------|---------------------------------|
A|-0----------------------------|-3---------------3---------------|-2---------------2---------------|
E|--------------3---------------|---------------------------------|---------------------------------|


E|---------------------------------|-0-------------------------------|---------------------------------|
B|-----1---0---1---1---3---1---3---|-----0-------------------0---3---|---------------------0-------0---|
G|---------------------------------|---------2---0---0---2-----------|-----2---0---2---2-------2-------|
D|---------------------------------|---------------------------------|---------------------------------|
A|-0---------------0---------------|---------------------------------|---------------------------------|
E|---------------------------------|-3---------------3---------------|-1---------------1---------------|


E|---------------------------------|---------------------------------|-0---1---0-------3---1---0-------|
B|-1-------------------------------|---------------------0---1---3---|-------------3---------------3---|
G|-----0-----------------------0---|-----2---0---2---2---------------|---------------------------------|
D|---------2---0-------0---2-------|---------------------------------|---------------------------------|
A|-----------------3---------------|---------------------------------|---------------------------------|
E|-0---------------0---------------|-1---------------1---------------|-3---------------3---------------|


E|-------------------------1-------|-0---1--0-----------------------|---------0----1----0-------|
B|-1-------1-------3---------------|-----------3---1---3-------0----|-1---3-----------------3---|
G|-----0-------0-------0-------0---|-----------------------0--------|---------------------------|
D|---------2---------------0-------|-----------2---------------0----|---------2---------0-------|
A|-3---------------2---------------|-0------------------------------|-3------------2------------|
E|---------------------------------|-------------------3------------|---------------------------|


E|-3----1---0-------------------|-----0-------0---0---1---0---1---|-3-------------------------------|
B|--------------3---------------|---------3-----------------------|-----3---0---------------0---3---|
G|------------------0-------0---|---------------------------------|-------------2---0---2-----------|
D|------2---------------0-------|---------------------------------|---------------------------------|
A|-0----------------------------|-3---------------3---------------|-2---------------2---------------|
E|--------------3---------------|---------------------------------|---------------------------------|


E|---------------------------------|-0-------------------------------|---------------------------------|
B|-----1---0---1---1---3---1---3---|-----0-------------------0---3---|---------------------0-------0---|
G|---------------------------------|---------2---0---0---2-----------|-----2---0---2---2-------2-------|
D|---------------------------------|---------------------------------|---------------------------------|
A|-0---------------0---------------|---------------------------------|---------------------------------|
E|---------------------------------|-3---------------3---------------|-1---------------1---------------|


E|---------------------------------|---------------------------------|-0---1---0-------3---1---0-------|
B|-1-------------------------------|---------------------0---1---3---|-------------3---------------3---|
G|-----0-----------------------0---|-----2---0---2---2---------------|---------------------------------|
D|---------2---0-------0---2-------|---------------------------------|---------------------------------|
A|-----------------3---------------|---------------------------------|---------------------------------|
E|-0---------------0---------------|-1---------------1---------------|-3---------------3---------------|


E|--------|
B|-1------|
G|-0------|
D|-2------|
A|-3------|
E|--------|



Login or Register to remove this ad.

5 comments on S.S. Anne

Very nice tab !! Just

5

Very nice tab !!
Just difficult to play without duration notation somewhere T_T
Maybe Tuxguitar can't do that ? (I didn't remind)
Anyway it works using the ASCII export from GuitarPro 5, then the tab becomes :

Track 1
      E  E  E  E  E  E  E  E     E  S  S E  E  E  E  Q       E  E  Q    Q    E  E     Q    E   E  E  E  E  E     
E||---------------------1-----|--0--1p-0------------------|--------0----1----0-----|--3----1p--0---------------||
B||---1-----1-----3-----------|----------3--1--3-----0----|--1--3---------------3--|--------------3------------||
G||*-----0-----0-----0-----0--|-------------------0-------|------------------------|-----------------0-----0--*||
D||*--------2-----------0-----|----------2-----------0----|--------2---------0-----|-------2------------0-----*||
A||---3-----------2-----------|--0------------------------|--3----------2----------|--0------------------------||
E||---------------------------|----------------3----------|------------------------|--------------3------------||


  E  E  E  E  E  E  E  E     E  E  E  E  E  E  E  E     E  E  E  E  E  E  E  E     E  E  E  E  E  E  E  E   
-----0-----0--0--1--0--1--|--3-----------------------|--------------------------|--0-----------------------|
--------3-----------------|-----3--0-----------0--3--|-----1--0--1--1--3--1--3--|-----0--------------0--3--|
--------------------------|-----------2--0--2--------|--------------------------|--------2--0--0--2--------|
--------------------------|--------------------------|--------------------------|--------------------------|
--3-----------3-----------|--2-----------2-----------|--0-----------0-----------|--------------------------|
--------------------------|--------------------------|--------------------------|--3-----------3-----------|


  E  E  E  E  E  E  E  E     E  E  E  E  E  E  E  E     E  E  E  E  E  E  E  E     E  E  E  E  E  E  E  E   
--------------------------|--------------------------|--------------------------|--0--1--0-----3--1--0-----|
-----------------0-----0--|--1-----------------------|-----------------0--1--3--|-----------3-----------3--|
-----2--0--2--2-----2-----|-----0-----------------0--|-----2--0--2--2-----------|--------------------------|
--------------------------|--------2--0-----0--2-----|--------------------------|--------------------------|
--------------------------|--------------3-----------|--------------------------|--------------------------|
--1-----------1-----------|--0-----------0-----------|--1-----------1-----------|--3-----------3-----------|


    E  E  E  E  E  E  E  E     E  S  S E  E  E  E  Q       E  E  Q    Q    E  E     Q    E   E  E  E  E  E     
|---------------------1-----|--0--1p-0------------------|--------0----1----0-----|--3----1p--0---------------||
|---1-----1-----3-----------|----------3--1--3-----0----|--1--3---------------3--|--------------3------------||
|*-----0-----0-----0-----0--|-------------------0-------|------------------------|-----------------0-----0--*||
|*--------2-----------0-----|----------2-----------0----|--------2---------0-----|-------2------------0-----*||
|---3-----------2-----------|--0------------------------|--3----------2----------|--0------------------------||
|---------------------------|----------------3----------|------------------------|--------------3------------||


  E  E  E  E  E  E  E  E     E  E  E  E  E  E  E  E     E  E  E  E  E  E  E  E     E  E  E  E  E  E  E  E   
-----0-----0--0--1--0--1--|--3-----------------------|--------------------------|--0-----------------------|
--------3-----------------|-----3--0-----------0--3--|-----1--0--1--1--3--1--3--|-----0--------------0--3--|
--------------------------|-----------2--0--2--------|--------------------------|--------2--0--0--2--------|
--------------------------|--------------------------|--------------------------|--------------------------|
--3-----------3-----------|--2-----------2-----------|--0-----------0-----------|--------------------------|
--------------------------|--------------------------|--------------------------|--3-----------3-----------|


  E  E  E  E  E  E  E  E     E  E  E  E  E  E  E  E     E  E  E  E  E  E  E  E     E  E  E  E  E  E  E  E   
--------------------------|--------------------------|--------------------------|--0--1--0-----3--1--0-----|
-----------------0-----0--|--1-----------------------|-----------------0--1--3--|-----------3-----------3--|
-----2--0--2--2-----2-----|-----0-----------------0--|-----2--0--2--2-----------|--------------------------|
--------------------------|--------2--0-----0--2-----|--------------------------|--------------------------|
--------------------------|--------------3-----------|--------------------------|--------------------------|
--1-----------1-----------|--0-----------0-----------|--1-----------1-----------|--3-----------3-----------|


  ^                  
  W                  
-------------------||
--1----------------||
--0----------------||
--2----------------||
--3----------------||
-------------------||




Duration Legend
---------------
W - whole
H - half
Q - quarter
E - 8th
S - 16th
T - 32nd
X - 64th
. - note dotted
|-n-|  - n-tuplets


Tablature Legend
----------------
L - tied note
x - dead note
g - grace note
(n) - ghost note
> - accentuded note
NH - natural harmonic
AH - artificial harmonic
TH - tapped harmonic
SH - semi harmonic
PH - pitch harmonic
h - hammer on
p - pull off
b - bend

mmhm. i keep forgeting to

mmhm. i keep forgeting to export using gp everytime :<
gonna update the zip file when i get home, thanks for the reminder! :DD

A question

5

How do you play something like

----
-3-
----
----
-0-
----

Use your fingers to pluck the

Use your fingers to pluck the strings instead of a pick. You can use your thumb on the bass string.

Also, if you're intent on

Also, if you're intent on using a pick and theres not too many bass notes, you can pluck the bass note with the pick and use your middle, ring, or pinky fingers for the higher notes.