Pokemon Center (Pokémon Red & Blue & Yellow) Ukulele Tab

Submitted: Dec 29, 2010 by kryo

1.5
Average: 1.5 (2 votes)
Download | Listen
Game: Pokémon Red & Blue & Yellow
Composer(s): Junichi Masuda
Style: Arrangement
Series: Pokemon

AutoScroll: Slow | Medium | Fast
  G		       D  Em
--2--0--5--10-7--5--3--0--2--0--4--6\7--5--2--3--5--
--3-----------7--------2--3-------------------------
--2-----------7--------2--4-------------------------
--0--------------------2--0-------------------------

  G		       D  Em
--2--0--5--10-7--5--3--0--2--0--4--6\7--5--2--3----
--3-----------7--------2--3------------------------
--2-----------7--------2--4------------------------
--0--------------------2--0------------------------


  G	            D  Am
--2--5--3--5--3--2--0--0--3--2--3--0-----2--5--3--2--3--5--7--5--3--2--3--2--3--2--0---
--3-----------------2--0--------------3--3--------------------------------------------3
--2-----------------2--0-----------------2---------------------------------------------
--0-----------------2--2-----------------0---------------------------------------------
Login or Register to remove this ad.