Ads

Pokemon Center (Pokémon Red & Blue & Yellow) Guitar Tab

Submitted: Sep 12, 2009 by GuitarGuy (Last updated: Aug 03, 2012)

4.761905
Average: 4.8 (21 votes)
Download | Listen
Game: Pokémon Red & Blue & Yellow
Composer(s): Junichi Masuda
Style: Arrangement, Fingerstyle
Series: Pokemon

AutoScroll: Slow | Medium | Fast
Pokemon Center (Pokemon Red, Yellow, Blue)
Arranged by: Romyl Lopez a.k.a GuitarGuy
Capo: 2
Standard Tuning

Here's a fun one for you guys! I hope you guys like it. Also, this is not the great Master lonlonjp's version of this 
piece, it's my own arrangement of Pokemon Center. Other than that, have fun with it! 

     E  E  E  E  E  E  E  E     E  E  E  E  E  E  E  E     E  E  E  E  E  E  E  E     E  E  E  E  E  E  E  E 
E||-----------3-----1-----0--|--------------------------|-----------0--------------|-----0--L-----------------|
B||--1-----1-----------------|--3--0--------L-----------|--0-----0--------3-----0--|--1-----------------------|
G|*-----0--------------0-----|-----------0--------0-----|-----0--------------0-----|-----------0--------0-----|
D|*--------------2-----------|--------0--------0-----0--|--------------0-----------|--------2--------2-----2--|
A||--3--------3--------------|--------------------------|--------------------------|--3-----------3-----------|
E||--------------------------|--3-----------3-----------|--3--------3--------------|--------------------------|




     E  E  E  E  E  E  E  E     E  E  E  E  E  E  E  E     E  E  E  E  E  E  E  E     E  E  E  E  E  E  E  E   
  |-----------3-----1-----0--|--------------------------|-----------0--------------|--------------------------|
  |--1-----1-----------------|--3--0--------L-----------|--0-----0--------3-----0--|--1-----------------------|
  |-----0--------------0-----|-----------0--------0-----|-----0--------------0-----|--------0-----------0-----|
  |--------------2-----------|--------0--------0-----0--|--------------0-----------|-----2-----2-----2-----2--|
  |--3--------3--------------|--------------------------|--------------------------|--3-----------3-----------|
  |--------------------------|--3-----------3-----------|--3--------3--------------|--------------------------|


  

     E  E  E  E  E  E  E  E     E  E  E  E  E  E  E  E     E  E  E  E  E  E  E  E     E  E  E  E  E  E  E  E    
  |--0-----------3-----------|--1--3--1--0--------------|--------------------------|--0--1--0-----------------|
  |--------------------------|--------------3-----------|--0-----------3-----------|-----------3--1-----------|
  |--------0-----------0-----|--------------------0-----|--------0-----------0-----|--------------------0-----|
  |-----2-----2-----2-----2--|--0--------------0-----0--|-----0-----0-----0-----0--|-----------------2-----2--|
  |--3-----------3-----------|--------------------------|--------------------------|--------------3-----------|
  |--------------------------|--------------3-----------|--3-----------3-----------|--3-----------------------|


 

     E  E  E  E  E  E  E  E     E  E  E  E  E  E  E  E     E  E  E  E  E  E  E  E     E  E  E  E  E  E  E  E   
  |--0-----------3-----------|--1--0--1--3--5-----------|--3-----1--0--1-----------|--0--1--0------------------||
  |--------------------------|--------------------6-----|--------------------0-----|-----------3--1------------||
  |--------0-----------0-----|-----------------5-----5--|-----------------0-----0--|--------------------0-----*||
  |-----2-----2-----2-----2--|--0-----------3-----------|-----0--L-----------------|-----------------2-----2--*||
  |--3-----------3-----------|--------------------------|--------------------------|--------------3------------||
  |--------------------------|--------------------------|--3-----------3-----------|--3------------------------||


   







Duration Legend
---------------
W - whole
H - half
Q - quarter
E - 8th
S - 16th
T - 32nd
X - 64th
. - note dotted
|-n-|  - n-tuplets


Tablature Legend
----------------
L - tied note
x - dead note
g - grace note
(n) - ghost note
> - accentuded note
NH - natural harmonic
AH - artificial harmonic
TH - tapped harmonic
SH - semi harmonic
PH - pitch harmonic
h - hammer on
p - pull off
b - bend
br - bendRelease
pb - preBend
pbr - preBendRelease
brb - bendReleaseBend
\n/ - tremolo bar dip
\n - tremolo bar dive
-/n - tremolo bar Release up
/n\ - tremolo bar inverted dip
/n - tremolo bar return
-\n - tremolo bar Release down
S - shift slide
s - legato slide
/ -  slide into from below or out of upwards
\ -  slide into from above or out of downwards
~ - vibrato
W - wide vibrato
tr - trill
TP - tremolo picking
T - tapping
S - slap
P - pop
< - fade in
^ - brush up
v - brush down
Login or Register to remove this ad.

6 comments on Pokemon Center

This is awesome! Keep it up.

This is awesome! Keep it up. It reminds me of my duping pokemon days in the pokemon center.

neetto

5

awesome >.

You can make your own capo..

You can make your own capo.. youtube it.

clap clap. This tab is really

clap clap. This tab is really good i appreciate you putting this up

Awesome

Such an awesome tab

Great Tab

5

But unlike lonlonjp I dont have to pay but I can still play your awesome work :)