Ads

Mt. Moon (Pokémon Red & Blue & Yellow) Guitar Tab

Submitted: Nov 01, 2011 by OggirtMoonfrad

5
Average: 5 (2 votes)
Download | Listen
Game: Pokémon Red & Blue & Yellow
Composer(s): Junichi Masuda
Style: Arrangement, Fingerstyle
Series: Pokemon

AutoScroll: Slow | Medium | Fast
(Capo 5)

      E  E  E  E  E  E  E  E     E  E  E  E  E  E  E  E   
D#||--------------------------|--------------------------|
A#||--------------------------|--------------------------|
F#||--------------------------|--------------------------|
D ||--------0--------0--------|--------0--------0--------|
A ||-----1--------1--------1--|-----1--------1--------1--|
E ||--2--------2--------2-----|--2--------2--------2-----|


  E  E  E  E  E  E  E  E     E  E  E  E  E  E  E  E   
--------------------------|--------------------------|
--0-----------------------|--0--4--0-----------------|
-----------2--------0--2--|-----------2--------0--2--|
--------0--------0--------|--------0--------0--------|
-----1--------1--------1--|-----1--------1--------1--|
--2--------2--------2-----|--2--------2--------2-----|


  E  E  E  E  E  E  E  E     E  E  E  E  E  E  E  E   
--------------------------|--------------------------|
--0--4--0-----------------|--------------------------|
-----------2--------0-----|--0--------2--------------|
--------0--------0-----3--|--------0--------0--------|
-----1--------1--------1--|-----1--------1-----1--2--|
--2--------2--------2-----|--2--------2--------------|


  E  E  E  E  E  E  E  E     E  E  E  E  E  E  E  E   
--0-----------------------|--0--4--0-----------------|
-----------3--------1--3--|-----------3--------1--3--|
--------1--------1--------|--------1--------1--------|
-----1--------1--------1--|-----1--------1--------1--|
--2--------2--------2-----|--2--------2--------2-----|
--------------------------|--------------------------|


  E  E  E  E  E  E  E  E     E  E  E  E  E  E  E  E   
--0--4--0-----------------|--------------------------|
-----------3--------1--0--|--1--------3--------1--L--|
--------1--------1--------|--------1--------1-----L--|
-----1--------1--------1--|-----1--------1--------1--|
--2--------2--------2-----|--2--------2--------2--L--|
--------------------------|--------------------------|


  E  E  E  E  E  E  E  E     E  E  E  E  E  E  E  E   
--------------------------|--------------------------|
--0-----------------------|--0--4--0-----------------|
-----------2--------0--2--|-----------2--------0--2--|
--------0--------0--------|--------0--------0--------|
-----1--------1--------1--|-----1--------1--------1--|
--2--------2--------2-----|--2--------2--------2-----|


  E  E  E  E  E  E  E  E     E  E  E  E  E  E  E  E   
--------------------------|--------------------------|
--0--4--0-----------------|--------------------------|
-----------2--------0-----|--0--------2--------------|
--------0--------0-----3--|--------0--------0--L--L--|
-----1--------1--------1--|-----1--------1--------1--|
--2--------2--------2-----|--2--------2--------2--L--|


  |--3--|  |--3--|  |--3--|  |--3--|                              
  E  E  E  E  E  E  E  E  E  E  E  E     E  E  E  E  E  E  E  E   
--1--1-----1--2--2--3--3-----3--4--4--|--------------------------|
--1--1-----1--0--0--------------------|--------------------------|
--------------------3--3-----3--4--4--|--5-----------4-----------|
--------------------------------------|--------4-----------3-----|
--------------------------------------|-----2-----2-----3-----3--|
--0--0-----0--1--1--2--2-----2--3--3--|--------------------------|


  E  E  E  E  E  E  E  E     E  E  E  E  E  E  E  E   
--------------------------|--------------------------|
--------------------------|--------------------------|
--3-----------2-----------|--------------------------|
--------2-----------1-----|--5-----------4-----------|
-----4-----4-----5-----5--|--------5-----------4-----|
--------------------------|-----3-----3-----4-----4--|


                             |--3--|  |--3--|  |--3--|  |--3--|           
  E  E  E  E  E  E  E  E     E  E  E  E  E  E  E  E  E  E  E  E     Q     
--------------------------|--4--4-----4--3--3--2--2-----2--1--1--|-------|
--------------------------|--------------------0--0-----0--1--1--|--x----|
--------------------------|--4--4-----1--3--3--------------------|--x----|
--3-----------2-----------|--------------------------------------|--x----|
--------3--------1--2--1--|--------------------------------------|--x----|
-----5-----5--------------|--3--3-----3--2--2--1--1-----1--0--0--|--x----|


  E  E  E  E  E  E  E  E     E  E  E  E  E  E  E  E   
--------------------------|--------------------------|
--------------------------|--------0--4--0-----------|
--2--------------0--------|-----0-----------2--------|
--------0--------0--------|--3-----0--------0--------|
--1--------1--------1-----|--1--------1--------1-----|
-----2--------2--------2--|-----2--------2--------2--|


  E  E  E  E  E  E  E  E     E  E  E  E  E  E  E  E   
--------------------------|--------------------------|
--------0--4--0-----------|--------0--------4--------|
-----0-----------2--------|-----0--------------------|
--3-----0--------0--------|--3-----0--------0--------|
--1--------1--------1-----|--1--------1--------1-----|
-----2--------2--------2--|-----2--------2--------2--|


  E  E  E  E  E  E  E  E     E  E  E  E  E  E  E  E   
--------------------------|--------0--4--0-----------|
--3--------------1--------|-----1-----------3--------|
--------1--------1--------|--4-----1--------1--------|
--1--------1--------1-----|--1--------1--------1-----|
-----2--------2--------2--|-----2--------2--------2--|
--------------------------|--------------------------|


  E  E  E  E  E  E  E  E     E  E  E  E  E  E     E  E   E  Q.       
--------0--4--0-----------|--0--------4--------|--------------------|
--1--3-----------3--------|--------------------|--0--4~--0----------|
--------1--------1--------|--1--------1--------|------------2~------|
--1--------1--------1-----|-----1--------1-----|--------------------|
-----2--------2--------2--|--------2--------2--|--------------------|
--------------------------|--------------------|--------------------|


  E  E   E  Q.         E  E  E  E  E  E     E  E  E  E  E  E   
--------------------|-----------------0--|-----0--------0-----|
--0--4~--0----------|--0--4--0-----1-----|--1--------1--------|
------------2~------|--------1--2--------|--1-----1--------1--|
--------------------|-----1--------------|--1-----------------|
--------------------|--2-----------------|--------------------|
--------------------|--------------------|--4-----------------|


                                            ^             
  E  E  E  E  E  E     E  E  E  E  E  E     H.            
-----0--------0-----|-----0--------0-----|--0------------|
--1--------1--------|--1--------1--------|--1------------|
--------1--------1--|--------1--------1--|--1------------|
--------------------|--------------------|--1------------|
--------------------|--------------------|--2------------|
--------------------|--4-----------------|--4------------|


  E  E  E  E  E  E  E  E     E  E  E  E  E  E  E  E   
--------------------------|--------------------------|
--------------------------|--------------------------|
--------------------------|--------------------------|
--------0--------0--------|--------0--------0--------|
-----1--------1--------1--|-----1--------1--------1--|
--2--------2--------2-----|--2--------2--------2-----|


  E  E  E  E  E  E  E  E     E  E  E  E  E  E  E  E   
--------------------------|--------------------------|
--0-----------------------|--0--4--0-----------------|
-----------2--------0--2--|-----------2--------0--2--|
--------0--------0--------|--------0--------0--------|
-----1--------1--------1--|-----1--------1--------1--|
--2--------2--------2-----|--2--------2--------2-----|


  E  E  E  E  E  E  E  E     E  E  E  E  E  E  E  E    
--------------------------|--------------------------||
--0--4--0-----------------|--------------------------||
-----------2--------0-----|--0--------2--------------||
--------0--------0-----3--|--------0--------0--------||
-----1--------1--------1--|-----1--------1-----1--2--||
--2--------2--------2-----|--2--------2--------------||




Duration Legend
---------------
W - whole
H - half
Q - quarter
E - 8th
S - 16th
T - 32nd
X - 64th
. - note dotted
|-n-|  - n-tuplets


Tablature Legend
----------------
L - tied note
x - dead note
g - grace note
(n) - ghost note
> - accentuded note
NH - natural harmonic
AH - artificial harmonic
TH - tapped harmonic
SH - semi harmonic
PH - pitch harmonic
h - hammer on
p - pull off
b - bend
br - bendRelease
pb - preBend
pbr - preBendRelease
brb - bendReleaseBend
\n/ - tremolo bar dip
\n - tremolo bar dive
-/n - tremolo bar Release up
/n\ - tremolo bar inverted dip
/n - tremolo bar return
-\n - tremolo bar Release down
S - shift slide
s - legato slide
/ -  slide into from below or out of upwards
\ -  slide into from above or out of downwards
~ - vibrato
W - wide vibrato
tr - trill
TP - tremolo picking
T - tapping
S - slap
P - pop
< - fade in
^ - brush up
v - brush down
Login or Register to remove this ad.