Ads

Lavender Town (Pokémon Red & Blue & Yellow) Guitar Tab

Submitted: Mar 05, 2012 by JordanVS

5
Average: 5 (7 votes)
Download | Listen
Game: Pokémon Red & Blue & Yellow
Composer(s): Junichi Masuda
Style: Arrangement, Fingerstyle
Series: Pokemon

AutoScroll: Slow | Medium | Fast
Lavender Town                                   
Pokemon
Red & Blue & Yellow 
Junichi Masuda 

Capo on 5th Fret


     S E.  S E.  S E.  S E.     S E.  S E.  S E.  S E.   
E||--------------2-----------|--------------2-----------|
B||--------3-----------2-----|--------3-----------2-----|
G||--0-----------------------|--0-----------------------|
D||--------------------------|--------------------------|
A||--------------------------|--------------------------|
E||--------------------------|--------------------------|


  S E.  S E.  S E.  S E.     S E.  S E.  S E.  S E.     Q    Q    Q    Q     
--------------2-----------|--------------2-----------|------------2---------|
--------3-----------2-----|--------3-----------2-----|-------3---------2----|
--0-----------------------|--0-----------------------|--0-------------------|
--------------------------|--------------------------|--0---------0---------|
--------------------------|--------------------------|----------------------|
--------------------------|--------------------------|----------------------|


  Q    Q    Q    Q       Q    Q    Q    Q       Q    Q    Q    Q     
------------2---------|------------2---------|------------2---------|
-------3---------2----|-------3---------2----|-------3---------2----|
--0-------------------|--0-------------------|--0-------------------|
----------------------|--0--------------4----|----------------------|
--2---------2---------|-------4----2---------|----------------------|
----------------------|----------------------|--4---------4---------|


  Q    Q    Q    Q       Q    Q    Q    Q       Q    Q    Q    Q     
------------2---------|------------2---------|------------2---------|
-------3---------2----|-------3---------2----|-------3---------2----|
--0-------------------|--0-------------------|--0-------------------|
--0---------0---------|----------------------|--4----0---------4----|
----------------------|--4---------4---------|------------4---------|
----------------------|----------------------|----------------------|


  Q    Q    Q    Q       Q    Q    Q    Q       Q    Q    Q    Q     
------------2---------|------------2---------|------------2---------|
-------3---------2----|-------3---------2----|-------3---------2----|
--0---------0---------|--0-------------------|--0-------------------|
----------------------|--0---------0---------|----------------------|
----------------------|----------------------|--2---------2---------|
----------------------|----------------------|----------------------|


  Q    Q    Q    Q       Q    Q    Q    Q       Q    Q    Q    Q     
------------2---------|------------2---------|--2--------------2----|
-------3---------2----|-------3---------2----|-------3----2---------|
--0-------------------|--0-------------------|----------------------|
--0--------------4----|----------------------|--0---------0---------|
-------4----2---------|--4---------4---------|----------------------|
----------------------|----------------------|----------------------|


  Q    Q    Q    Q       Q     Q    Q    Q       Q    Q    Q    Q      
--2--------------2----|--5----10----9----7----|------------2---------||
-------3----2---------|-----------------------|-------3---------2----||
----------------------|-----------------------|--0-------------------||
----------------------|--4-----0---------4----|----------------------||
--4---------4---------|-----------------------|----------------------||
----------------------|-------------9---------|--3---------3---------||




Duration Legend
---------------
Q - quarter
E - 8th
S - 16th
|-n-|  - n-tuplets
Login or Register to remove this ad.

3 comments on Lavender Town

you are such a boss for

5

you are such a boss for tabbing this out, thanks man, lovin' it

Thanks,Bro!

Thanks,Bro!

Totally creep! Nice tab man!

Totally creep! Nice tab man!