Stormy Sea (Pokémon Mystery Dungeon: Blue Rescue Team) Guitar Tab

Submitted: Dec 19, 2011 by Lemoncobbler

5
Average: 5 (2 votes)
Download | Listen
Game: Pokémon Mystery Dungeon: Blue Rescue Team
Composer(s): Arata Iiyoshi, Atsuhiro Ishizuna
Style: Arrangement, Fingerstyle
Series: Pokemon

AutoScroll: Slow | Medium | Fast
                                  Stormy Sea                                    


Stormy Sea (Capo 1)
Pokemon Mystery Dungeon
Composed by Arata Iiyoshi
Tabbed by Lemoncobbler

      Q    Q    Q    Q       Q    Q    Q    Q       Q    Q    Q    Q     
E ||-----------------7----|--5---------3----0----|--2---------0---------|
B ||-------0----1---------|-------7--------------|-------3---------1----|
G ||----------------------|----------------------|----------------------|
D ||----------------------|----------------------|----------------------|
A ||--0---------0---------|--0---------0---------|--0---------0---------|
D#||----------------------|----------------------|----------------------|


  Q    Q    Q    Q       Q    Q    Q    Q       Q    Q    Q    Q     
-----------------7----|--5---------3----0----|--2---------0---------|
-------0----1---------|-------7--------------|-------3---------1----|
----------------------|----------------------|----------------------|
----------------------|----------------------|----------------------|
--0---------0---------|--0---------0---------|--0---------0---------|
----------------------|----------------------|----------------------|


  Q    Q    Q    Q       Q    Q    Q    Q       Q    Q    Q    Q     
-----------------5----|--3----0--------------|--0-------------------|
----------------------|------------6----3----|------------3---------|
-------2----3---------|----------------------|-------5---------3----|
----------------------|----------------------|----------------------|
----------------------|----------------------|----------------------|
--5---------5---------|--5---------5---------|--5---------5---------|


  Q    Q    Q    Q       Q    Q    Q    Q       Q    Q    Q    Q     
-----------------5----|--3----0--------------|--0-------------------|
----------------------|------------6----3----|------------3---------|
-------2----3---------|----------------------|-------5---------3----|
----------------------|----------------------|----------------------|
----------------------|----------------------|----------------------|
--5---------5---------|--5---------5---------|--5---------5---------|


  Q    Q    Q    Q       Q    Q    Q    Q       Q    Q    Q    Q     
-----------------7----|--5---------3----0----|--2---------0---------|
-------0----1---------|-------7--------------|-------3---------1----|
----------------------|----------------------|----------------------|
----------------------|----------------------|----------------------|
--0---------0---------|--0---------0---------|--0---------0---------|
----------------------|----------------------|----------------------|


  Q    Q    Q    Q       Q    Q    Q    Q       Q    Q    Q    Q     
-----------------7----|--5---------3----0----|--2---------0---------|
-------0----1---------|-------7--------------|-------3---------1----|
----------------------|----------------------|----------------------|
----------------------|----------------------|----------------------|
--0---------0---------|--0---------0---------|--0---------0---------|
----------------------|----------------------|----------------------|


  Q    Q    Q     Q       Q    Q    Q    Q       Q    Q    Q    Q     
------------0----10----|--8----5----6----3----|--5----1----3---------|
-------4---------------|----------------------|-----------------4----|
-----------------------|----------------------|----------------------|
--2--------------------|----------------------|----------------------|
--0---------0----------|--0-------------------|--0---------0---------|
-----------------------|------------6---------|----------------------|


  Q    Q    Q     Q       Q    Q    Q    Q       Q    Q    Q     E   E   
------------0----10----|--8----5----6----3----|--5----1----3---------L--|
-------4---------------|----------------------|-------------------------|
-----------------------|----------------------|-------------------------|
--2--------------------|----------------------|-------------------------|
--0---------0----------|--0-------------------|--0---------0s----2s--0--|
-----------------------|------------6---------|-------------------------|


  Q    Q    Q    Q       Q    Q    Q    E   E     Q    Q    Q    Q     
--6----6---------6----|-------6---------8------|--L--------------3----|
--6----6---------6----|-------6---------8------|--L-------------------|
----------------------|------------------------|-----------------0----|
----------------------|------------------------|----------------------|
----------------------|-----------------6s--7--|--L--------------3----|
--0---------x---------|--x---------x-----------|-------1----4---------|


  Q     E   E   Q     Q       Q    Q    Q    Q       Q    Q    Q    E   E   
--L--------15--------------|--6----6---------6----|-------6---------8------|
---------------15----13----|--6----6---------6----|-------6---------8------|
-------12------------------|----------------------|------------------------|
---------------------------|----------------------|------------------------|
--L------------------------|----------------------|-----------------6s--7--|
----------------0----------|--0---------x---------|--x---------x-----------|


  Q    Q    Q    Q       Q     E   E   Q     Q       Q    Q    Q    Q     
--L--------------3----|--L--------15--------------|--6----6---------6----|
--L-------------------|---------------15----13----|--6----6---------6----|
-----------------0----|-------12------------------|----------------------|
----------------------|---------------------------|----------------------|
--L--------------3----|--L------------------------|----------------------|
-------1----4---------|----------------0----------|--0---------x----0----|


                 v                                                   
  Q    Q    Q    Q       H        Q    Q       Q    Q    Q     Q     
-------6---------8----|--L-------------8----|-------8---------10----|
-------6---------8----|--L-------------8----|-------8---------10----|
-----------------7----|--L------------------|-----------------10----|
----------------------|---------------------|-----------------------|
----------------------|----------------5----|-------5---------10----|
--x----0----x---------|-----------x---------|--x---------x----------|


  Q    Q    Q    Q       Q    H        Q       Q    Q     Q    Q     
-----------------L----|---------------------|------------13---------|
-----------------L----|---------------------|------------13---------|
-----------------L----|---------------------|------------12---------|
-------0---------0----|--L-------------0----|--L--------------------|
------------2---------|-------4-------------|-----------------------|
-----------------L----|---------------------|------------------x----|


   Q    Q     H           Q    Q    H           H        H         
--12---------10--------|---------------------|--------------------|
--13---------10--------|---------------------|--------------------|
-------------10--------|---------------------|--------------------|
-----------------------|--0---------0--------|-----------0--------|
-------------10--------|-------2-------------|--4-----------------|
--------x--------------|---------------------|--------------------|


  Q    Q     Q    Q        H          
------------13---------|--12--------||
------------13---------|--13--------||
------------12---------|------------||
-----------------------|------------||
-----------------------|------------||
--x----x----------x----|------------||




Duration Legend
---------------
W - whole
H - half
Q - quarter
E - 8th
S - 16th
T - 32nd
X - 64th
. - note dotted
|-n-|  - n-tuplets


Tablature Legend
----------------
L - tied note
x - dead note
g - grace note
(n) - ghost note
> - accentuded note
NH - natural harmonic
AH - artificial harmonic
TH - tapped harmonic
SH - semi harmonic
PH - pitch harmonic
h - hammer on
p - pull off
b - bend
br - bendRelease
pb - preBend
pbr - preBendRelease
brb - bendReleaseBend
\n/ - tremolo bar dip
\n - tremolo bar dive
-/n - tremolo bar Release up
/n\ - tremolo bar inverted dip
/n - tremolo bar return
-\n - tremolo bar Release down
S - shift slide
s - legato slide
/ -  slide into from below or out of upwards
\ -  slide into from above or out of downwards
~ - vibrato
W - wide vibrato
tr - trill
TP - tremolo picking
T - tapping
S - slap
P - pop
< - fade in
^ - brush up
v - brush down
Login or Register to remove this ad.

2 comments on Stormy Sea

i've been waiting for someone

5

i've been waiting for someone to post a mystery dungeon tab, and finally here one is. ty!

Liked this arrangement (and

5

Liked this arrangement (and the song is pretty cool too)!