Vermillion City (Pokémon Gold & Silver) Guitar Tab

Submitted: Feb 23, 2012 by Lemoncobbler

5
Average: 5 (4 votes)
Download | Listen
Game: Pokémon Gold & Silver
Composer(s): Junichi Masuda, Go Ichinose
Style: Arrangement, Fingerstyle, Natural harmonics
Series: Pokemon

AutoScroll: Slow | Medium | Fast
                                Vermillion City                                 
Pokemon GSC
Composed by Junichi Masuda
Tabbed by Lemoncobbler
Feb 21st 2012

     Q    Q    Q    Q       Q    Q    Q    Q       Q    Q    E  E  E  E   
E||--0-------------------|----------------------|------------------------|
B||--0----3----0----0----|----------------------|------------3-----2-----|
G||-----------------1----|-----------------1----|--2------------2-----1--|
D||------------2---------|--4----2----4---------|-------2----------2-----|
A||-------2--------------|--5---------5---------|--0---------------------|
E||--0-------------------|----------------------|------------2-----------|


  Q    E  S S Q    Q       Q    Q    E  E  E  E     E  E  E  S S Q    Q     
------------------------|------------------------|-------------------------|
--0---------0-2---------|------------3-----2-----|--0--------2-0-----------|
----------2--------2----|--2------------2-----1--|--------2------2---------|
--0----0----------------|-------2----------2-----|--0--3-----0---2---------|
------------------------|--0---------------------|--------------------4----|
--------------0---------|------------2-----------|---------------0---------|


  Q    Q    E  E  E  E     Q    E  S S Q    Q       Q    Q    E  E  E  E   
------------------------|------------------------|------------------------|
------------3-----2-----|--0---------0-2---------|------------3-----2-----|
--2------------2-----1--|----------2--------2----|--2------------2-----1--|
-------2----------2-----|--0----0--0-------------|-------2----------2-----|
--0---------------------|------------------------|--0---------------------|
------------2-----------|--------------0---------|------------2-----------|


  E  E  E  S S Q    Q       E  E  E  E  E  E  E  E     E  E  E  E  E  E  E  E   
-------------------------|--------------------0--L--|--2--------L--7--------L--|
--0--------2-0-----------|--0--L--2--L--3--L--------|--------------------------|
--------2------2---------|--------------------------|--------2-----------------|
--0--3-----0---2---------|--0--4-----4-----4-----4--|--0--4-----4--7-----7-----|
--------------------4----|--------4-----2-----0-----|-----------------9-----9--|
---------------0---------|--------------------------|--------------------------|


  E  E  E  E  E  E  E  S  S    E  E  E  E  E  E  E  E   
--5-----4-----0-----0-------|--2-----------7-----------|
--------0-----7-----0-------|--------------------------|
----------------------------|--------2-----------------|
-----6-----6-----0----------|--0--4-----4--7-----7-----|
--7--------------------2s-4-|-----------------9-----9--|
----------------------------|--------------------------|


  E  E  E  E  E  E  E  S  S    H.           E  E     W                 
--5-----4-----0-----0-------|--2------------0--2--|--0----------------|
--------0-----7-----0-------|--0------------------|-------------------|
----------------------------|---------------------|--1----------------|
-----6-----6-----0----------|---------------------|--2----------------|
--7--------------------2s-4-|---------------------|-------------------|
----------------------------|--0------------------|-------------------|


  H.           E  E     W                   Q    Q    Q    Q     
--5------------4--5--|--4----------------|--4-------------------|
--0------------------|--5----------------|----------------------|
---------------------|--4----------------|-------1--------------|
---------------------|-------------------|--2---------4----2----|
--2------------------|-------------------|----------------------|
---------------------|-------------------|----------------------|


     NH                 
     W                  
--<>12----------------||
-----0----------------||
----------------------||
----------------------||
----------------------||
-----0----------------||




Duration Legend
---------------
W - whole
H - half
Q - quarter
E - 8th
S - 16th
T - 32nd
X - 64th
. - note dotted
|-n-|  - n-tuplets


Tablature Legend
----------------
L - tied note
x - dead note
g - grace note
(n) - ghost note
> - accentuded note
NH - natural harmonic
AH - artificial harmonic
TH - tapped harmonic
SH - semi harmonic
PH - pitch harmonic
h - hammer on
p - pull off
b - bend
br - bendRelease
pb - preBend
pbr - preBendRelease
brb - bendReleaseBend
\n/ - tremolo bar dip
\n - tremolo bar dive
-/n - tremolo bar Release up
/n\ - tremolo bar inverted dip
/n - tremolo bar return
-\n - tremolo bar Release down
S - shift slide
s - legato slide
/ -  slide into from below or out of upwards
\ -  slide into from above or out of downwards
~ - vibrato
W - wide vibrato
tr - trill
TP - tremolo picking
T - tapping
S - slap
P - pop
< - fade in
^ - brush up
v - brush down
Login or Register to remove this ad.