Route 31 (Pokémon Gold & Silver) Guitar Tab

Submitted: Jan 27, 2010 by Codykins

5
Average: 5 (2 votes)
Download | Listen
Game: Pokémon Gold & Silver
Composer(s): Junichi Masuda, Go Ichinose
Style: Alternate picking, Transcription
Series: Pokemon

This song is also called Route 30, Route 32, Route 33

AutoScroll: Slow | Medium | Fast
Route 31 Music
Pokemon Gold/Silver
Tabbed by Codykins


e------------------------------------------1---0------------------------------
B------------------------------------3-0---------3-1--3-5-3-5-3---0-1-0-1-0---
G-0--0-0-0-0-0--0--0-0-0-0---------0-----0------------------------------------
D--------------------------0-2-3-4--------------------------------------------
A-----------------------------------------------------------------------------
E-----------------------------------------------------------------------------

e-----------1---0-----------------------------------1---5--3-------------
B-1---1-----------3-1-0-----3--------0--------0-1-3----------3---1-0-----
G-------2----------------0-----0------------2------------------------2-0-
D---------3-----------------------0-------3------------------------------
A------------------------------------------------------------------------
E------------------------------------------------------------------------

e---------1---8--7-----7-------------------------------------------------
B---0-1-3----------8-----8-----------------------------------------------
G-2----------------------------------------------------------------------
D------------------------------------------------------------------------
A------------------------------------------------------------------------
E------------------------------------------------------------------------
Login or Register to remove this ad.

1 comment on Route 31

Aewsome <3

5

Aewsome <3