Ads

Pokemon Center (Pokémon Gold & Silver) Guitar Tab

Submitted: Mar 06, 2013 by cippicrater

4.555555
Average: 4.6 (9 votes)
Download | Listen
Game: Pokémon Gold & Silver
Composer(s): Junichi Masuda, Go Ichinose
Style: Transcription
Series: Pokemon

AutoScroll: Slow | Medium | Fast
Pokémon Center Gold/Silver/Crystal

e|---------5-3-2-0---------2-0-----2-------5-3-2-0---------2-0-----2-5-3-5-3-2-0--|
B|--3---3----------2-2---2-----2-3---3---3---------2-2---2-----2-3----------------|
G|----2----------------2---------------2---------------2--------------------------|
D|--------------------------------------------------------------------------------|   
A|--------------------------------------------------------------------------------|
E|--------------------------------------------------------------------------------|

       
e|---0-2-3-2-0---2-5-3-2-3-5-7-5-3-2-3-2-3-2-0------------------------------------|
B|-2-----------3-------------------------------3----------------------------------|
G|--------------------------------------------------------------------------------|
D|--------------------------------------------------------------------------------|   
A|--------------------------------------------------------------------------------|
E|--------------------------------------------------------------------------------|

       
Login or Register to remove this ad.

9 comments on Pokemon Center

So cool :D

So cool :D

So cool :D

5

So cool :D

So cool :D

5

So cool :D

:)

:)

So cool :D

5

So cool :D

So cool :D

5

So cool :D

...

4

I got a little confused around the end but, It's pretty cool.

So cool :D

5

So cool :D

Have I always imagined the end being 2-3,not 3, on b string?

5

Idk I think it sounds more like my memory, what do you think