Lavender Town (Pokémon Gold & Silver) Guitar Tab

Submitted: Dec 20, 2010 by GuitarGuy

4.57143
Average: 4.6 (7 votes)
Download | Listen
Game: Pokémon Gold & Silver
Composer(s): Junichi Masuda, Go Ichinose
Style: Arrangement, Fingerstyle
Series: Pokemon

AutoScroll: Slow | Medium | Fast
Gtr I (E A D G B E) - Lavender Town
Arranged by: Romyl Lopez a.k.a GuitarGuy


    Q=120
   
    Gtr I
    S. E T S. E T S. E T S. E T   S. E T S. E T S. E T S. E T
||------------------------------|-----------------------------|
||o---------------0-------------|---------------0-------------|
||---------0--------------------|--------0--------------------|
||-----------------------4------|----------------------4------|
||o-3---------------------------|-3---------------------------|
||------------------------------|-----------------------------|


  
   S.  E T S. E T S. E T S. E T   S. E T S. E T Q      Q
*|------------------------------|---------------0------1------|
*|----------------0-------------|-----------------------------|
*|---------0--------------------|--------0--------------------|
*|-----------------------4------|-----------------------------|
*|-3----------------------------|-3---------------------------|
*|------------------------------|-----------------------------|


  
   Q       Q       Q       Q      Q      Q      Q      Q
*|-3---------------3------------|-0-------------0------1------|
*|------------------------------|-----------------------------|
*|-------------------------0----|---------------2-------------|
*|---------2-------2------------|--------2--------------------|
*|-3----------------------------|-0---------------------------|
*|------------------------------|-----------------------------|


  
   Q       Q       Q       Q      Q      Q      Q      E  E
*|-3-------1-------0-------7----|-9-----------------------0---|
*|------------------------------|----------------------3------|
*|-----------------0------------|-6---------------------------|
*|------------------------------|-----------------------------|
*|---------2---------------8----|-7------4------1-------------|
*|-0----------------------------|----------------------3------|


  
   Q       Q       E  E   E  E    Q      Q      Q      Q
*|-1------------------3---1--0--|-----------------------------|
*|------------------------------|-3--------------------3------|
*|-----------------2------------|---------------2------2------|
*|------------------------------|--------0------4-------------|
*|---------3--------------3-----|-----------------------------|
*|-1----------------------------|-3---------------------------|


  
   Q       Q       Q       E  E   Q      Q      Q      E  E
*|-0-----------------------1--0-|----------------------0--1---|
*|------------------------------|-3---------------------------|
*|-------------------------0----|-----------------------------|
*|-----------------2------------|-3------0--------------------|
*|---------3--------------------|---------------2-------------|
*|-3----------------------------|----------------------3------
  


   Q       Q       Q       Q      Q      Q      Q      Q
*|-3---------------3------------|-0-------------0------1------|
*|------------------------------|-----------------------------|
*|-----------------0------------|---------------2-------------|
*|---------2---------------2----|--------2--------------------|
*|-3----------------------------|-0---------------------------|
*|------------------------------|-----------------------------|


  
   Q       Q       Q       Q      Q      Q      Q      E  E
*|-3-------1-------0-------7----|-9-----------------------0---|
*|------------------------------|----------------------3------|
*|-----------------0------------|-6---------------------------|
*|------------------------------|-----------------------------|
*|---------2---------------8----|-7------4------1-------------|
*|-0----------------------------|----------------------3------|


  
   Q       Q       E  E    E  E   Q      Q      Q      E  E
*|-1------------------3----1--0-|-----------------------------|
*|------------------------------|-3-------------0------1--3---|
*|-----------------2------------|-----------------------------|
*|------------------------------|--------0--------------------|
*|---------3---------------3----|-----------------------------|
*|-1----------------------------|-3---------------------------|


  
   E  E    Q       Q       Q      Q      Q      Q      Q
*|-3--3----1---------------3----|-8-------------0-------------|
*|-----------------3------------|--------8-------------1------|
*|------------------------------|---------------0-------------|
*|---------3-------0-------3----|-----------------------------|
*|-3----------------------------|--------7--------------------|
*|------------------------------|-8---------------------------|


  
   E  E    E  E    Q       Q      Q      Q      Q      Q
*|------------------------------|-----------------------------|
*|------------0----1------------|-----------------------------|
*|-2--0----2---------------0----|-----------------------------|
*|------------------------------|-3------2------0-------------|
*|------------------------------|----------------------3------|
*|-1----------------------------|-----------------------------|


  
   E  E    E  E    Q       Q      Q   S T S S.  Q      Q
*|------------------------------|-1---0---1-0-----------------|
*|------------0----1------------|---------------3------1------|
*|-2--0----2---------------0----|-----------------------------|
*|------------------------------|-----------------------------|
*|------------------------------|-----------------------------|
*|-1----------------------------|-----------------------------|


  
   E  E    E  E    Q       Q      E  E   E  E   Q      Q
*|------------------------------|-----------------------------|
*|------------0----1------------|-----------0---1------2------|
*|-2--0----2---------------0----|-2--1---2--------------------|
*|------------------------------|-----------------------------|
*|------------------------------|-----------------------------|
*|-1----------------------------|-2---------------------------|


  
   Q       Q       Q       Q      H            S S S S E  E
*|------------------------------|----------------1-3---0--1---||
*|-3-----------------------1----|-0------------3-------------o||
*|-----------------0------------|-----------------------------||
*|---------0--------------------|-----------------------------||
*|------------------------------|----------------------------o||
*|-3----------------------------|-3---------------------------||

Login or Register to remove this ad.

1 comment on Lavender Town

One delightful arrangement

5

One delightful arrangement this is. Simple and smooth! It must have been hard to figure out those... steely(?) note combinations, as seen on the bars 7 and 8.
Thank you very much for sharing it with us!