Ads

Goldenrod City (Pokémon Gold & Silver) Bass Tab

Submitted: Feb 19, 2011 by auriplane

5
Average: 5 (2 votes)
Download | Listen
Game: Pokémon Gold & Silver
Composer(s): Junichi Masuda, Go Ichinose
Style: Transcription
Series: Pokemon

AutoScroll: Slow | Medium | Fast
                 Pokemon G/S/C - Goldenrod City BASS TAB
                 Composed by Junichi Masuda, Go Ichinose 

                Tabbed by auriplane ([email protected])



Four-string bass, standard tuning.

G |----------------|----------------|----------------|----------------|
D |----------------|----------------|----------------|6-----6-------6-| x2
A |4-----4-3-----3-|----------------|--------6-----6-|----------------|
E |----------------|6-----6-4-----4-|2-----2---------|--------4-4-----|


G |--6---------56--|--5---------45--|--3---------23--|----------------|
D |--------------6-|--------------6-|--------------4-|--6---------56--|
A |4--4--4---------|3--3--3---------|1--1--1---------|----------36--6-|
E |----------------|----------------|----------------|4--4--4---------|


G |--6---------56--|--5---------45--|--3---------23--|----------------|
D |--------------6-|--------------6-|--------------4-|--6-----6-4-----|
A |4--4--4---------|3--3--3---------|1--1--1---------|------------6---|
E |----------------|----------------|----------------|4--4--4-------4-|

Login or Register to remove this ad.

2 comments on Goldenrod City

Such a fun song; can't stop

Such a fun song; can't stop listening

I agree; it's fun to play and

5

I agree; it's fun to play and addictive!