style="display:inline-block;width:728px;height:90px"
data-ad-client="ca-pub-7696863992758820"
data-ad-slot="5242914555">

Dark Cave (Pokémon Gold & Silver) Guitar Tab

Submitted: Sep 30, 2012 by Lemoncobbler

5
Average: 5 (11 votes)
Download | Listen
Game: Pokémon Gold & Silver
Composer(s): Junichi Masuda, Go Ichinose
Style: Arrangement, Fingerstyle, Percussion
Series: Pokemon

AutoScroll: Slow | Medium | Fast
                                  Dark Cave                                     


                                                        Arranged by Lemoncobbler
Composed by JunichiMasuda
9/27/2012
Capo Fret 1

     Q    E  Q    E  Q       Q    Q    E  E  Q       Q    E  Q    E  Q     
E||-----------------------|-----------------------|-----------------------|
B||-----------------------|-----------------------|-----------------------|
G||-----------------------|-----------------------|-----------------------|
D||-------4--0----4--2----|--0--------------------|-------4--0----4--2----|
A||--2--------------------|-------0----0--2--3----|--2--------------------|
D||-----------------------|-----------------------|-----------------------|


  Q    Q    E  E  Q       Q    E  Q    E  Q       Q    Q    E  E  Q     
-----------------------|--2--------------------|--5--------------------|
-----------------------|-----------------------|-----------------------|
-----------------------|-----------------------|-----------------------|
--0--------------------|-------4--0----4--2----|--0--------------------|
-------0----3--2--3----|--2--------------------|-------0----0--2--3----|
-----------------------|-----------------------|-----------------------|


  Q    E  Q    E  Q       Q    Q    E  E  Q       E  E  E  E  E  E  E  E   
--0--------------------|--2--------------------|--------------------------|
-----------------------|-----------------------|--3-----0--3-----0--3--0--|
-----------------------|-----------------------|-----0--------0-----------|
-------4--0----4--2----|--0--------------------|-----------0--------2-----|
--2--------------------|-------0----3--2--3----|--2-----------------------|
-----------------------|-----------------------|--------------------------|


  E  E  E  E  E  E  E  E     E  E  E  E  E  E  E  E     E  E  E  E  E  E  Q     
--------------------------|--------------------------|-------------------------|
--2--------2--------2-----|--1--------1--------1-----|--0--------0--1--0--1----|
--------2--------2-----2--|--------2--------2-----2--|--------0----------------|
-----4--------4-----------|-----2--------2-----0-----|-----0-------------------|
-----------0--------4-----|-----------3--------------|-------------------------|
--0-----------------------|--3-----------------------|--0----------------------|


  E  E  E  E  E  E  E  E     E  E  E  E  E  E  E  E   
--------------------------|--------------------------|
--3-----0--3-----0--3--0--|--2--------2--------2-----|
-----0--------0-----------|--------2--------2-----2--|
-----------0--------2-----|-----4--------4-----------|
--2-----------------------|-----------0--------4-----|
--------------------------|--0-----------------------|


  E  E  E  E  E  E  E  E     E  E  E  E  E  E  Q       E  E  E  E  E  E  E  E   
--------------------------|-------------------------|--------------------------|
--1--------1--------1-----|--0--------0-------------|--------------0-----------|
--------2--------2-----2--|--------0----------------|--------------------------|
-----2--------2-----0-----|-----0-------------------|--0--------0--------0-----|
-----------3--------------|--------------3--2--3----|--------2--------2-----2--|
--3-----------------------|--0----------------------|-----5--------------------|


  E  E  E  Q    E  E  E     E  E  E  E  E  E  E  E     E  E  E  E  E  E  E  E   
-------------------------|--------------------------|--------------------------|
--2--0-------------2-----|--1--------1--------1-----|--0--------0--------0-----|
--------2-------2--------|--------2--------2-----2--|--------0--------0-----0--|
-----------4-------------|-----2--------2-----------|-----0--------0-----------|
--4-------------0-----0--|--3-----------------------|--2-----------------------|
-------------------------|--------------------------|--------------------------|


  E  E  E  E  E  E  E  E     E  E  E  Q    E  E  E     E  E  E  E  E  E  E  E   
--------------------------|-------------------------|--------------------------|
--0-----------0-----------|--2--0-------------2-----|--1--------1--------0--1--|
--------------------------|--------2-------2--------|--------2--------2--------|
-----------0--------0-----|-----------4-------------|-----2--------2-----------|
--------2--------2-----2--|--4-------------0-----0--|--3-----------------------|
-----5--------------------|-------------------------|--------------------------|


                          thumbslaps                                            
  Q    Q    E  E  Q       Q          E  E  Q    E  E     Q    E  E  Q    E  E   
-----------------------|--0---------------------------|------------------------|
--3--------------------|-------------3--2--3----2--0--|--2-------0--2----0-----|
--0--------------------|--0---------------------------|-------2-------------2--|
--2--------------------|--2----------4--0-------2-----|--0---------------------|
--x----0----3--2--3----|--2---------------------------|-------0----------3-----|
--2--------------------|--x----------------x----------|--x----------x----------|


  Tap Body Of Guitar                                             
  Q                  E  E  Q    E  E     E  E  E  E  Q    E  E   
--------------------------------------|-------------------------|
--------------------------------------|--3--2--0-----0----------|
--5------------------------2----------|--4--------2-------------|
--2------------------------5----------|--2----------------------|
--2------------------------3----------|-------------------------|
---------------------x--x-------x--x--|--2----------------x--x--|


  Thumbslaps                                            
  Q          E  E  Q    E  E     Q    E  E  Q    E  E   
--0---------------------------|------------------------|
-------------3--2--3----2--0--|--2-------0--2----0-----|
--0---------------------------|-------2-------------2--|
--2----------4--0-------2-----|--0---------------------|
--2---------------------------|-------0-----0----3-----|
--x----------------x----------|--x----------x----------|


  Tap Body Of Guitar                                             
  Q                  E  E  Q    E  E     E  E  E  E  Q    E  E   
--------------------------------------|-------------------------|
--------------------------------------|--3--2--0-----0----------|
--5------------------------2----------|--4--------2-------------|
--2------------------------5----------|--2----------------------|
--2------------------------3----------|-------------------------|
---------------------x--x-------x--x--|--2----------------x--x--|


  E  E  E  E  E  E  E  E     E  E  E  Q    E  E  E     E  E  E  E  E  E  E  E   
--------------------------|-------------------------|--------------------------|
--------------0-----------|--2--0-------------2-----|--1--------1--------1-----|
--------------------------|--------2-------2--------|--------2--------2-----2--|
--0--------0--------0-----|-----------4-------------|-----2--------2-----------|
--------2--------2-----2--|--4-------------0-----0--|--3-----------------------|
-----5--------------------|-------------------------|--------------------------|


  E  E  E  E  E  E  E  E     E  E  E  E  E  E  E  E     E  E  E  Q    E  E  E   
--------------------------|--------------------------|-------------------------|
--0--------0--------0-----|--0-----------0-----------|--2--0-------------2-----|
--------0--------0-----0--|--------------------------|--------2-------2--------|
-----0--------0-----------|-----------0--------0-----|-----------4-------------|
--2-----------------------|--------2--------2-----2--|--4-------------0-----0--|
--------------------------|-----5--------------------|-------------------------|


  E  E  E  E  E  E  E  E     Q    Q    E  E  Q       Q    E  Q    E  Q     
--------------------------|-----------------------|-------2-------2--0----|
--1--------1--------0--1--|--3--------------------|--0-------3------------|
--------2--------2--------|--0--------------------|-----------------------|
-----2--------2-----------|--2--------------------|-----------------------|
--3-----------------------|--x----0----3--2--3----|-----------------------|
--------------------------|--2--------------------|-----------------------|


  Q    Q    E  E  Q       Q    E  Q    E  Q       Q    Q    E  E  Q     
-----------------------|-------2-------2--0----|-----------------------|
--3--------------------|--0-------3------------|--3--------------------|
-------2----2--4--5----|--4--------------------|-------2----5--4--5----|
-----------------------|--4--------------------|-----------------------|
------------0--2--3----|--2--------------------|------------3--2--3----|
-----------------------|-----------------------|-----------------------|


  Q    E  Q    E  Q       Q    Q    E  E  Q       Q    E  Q    E  Q     
-------2-------2--0----|-----------------------|-------2-------2--0----|
--0-------3------------|--3--------------------|--0-------3------------|
--4--------------------|-------2----2--4--5----|--4--------------------|
--4--------------------|-----------------------|--4--------------------|
--2--------------------|------------0--2--3----|--2--------------------|
-----------------------|-----------------------|-----------------------|


  Q    Q    E  E  Q       W                  
-----------------------|-------------------||
--3--------------------|--0----------------||
-------2----5--4--5----|--4----------------||
-----------------------|--4----------------||
------------3--2--3----|--2----------------||
-----------------------|-------------------||




Duration Legend
---------------
W - whole
H - half
Q - quarter
E - 8th
S - 16th
T - 32nd
X - 64th
. - note dotted
|-n-|  - n-tuplets


Tablature Legend
----------------
L - tied note
x - dead note
g - grace note
(n) - ghost note
> - accentuded note
NH - natural harmonic
AH - artificial harmonic
TH - tapped harmonic
SH - semi harmonic
PH - pitch harmonic
h - hammer on
p - pull off
b - bend
br - bendRelease
pb - preBend
pbr - preBendRelease
brb - bendReleaseBend
\n/ - tremolo bar dip
\n - tremolo bar dive
-/n - tremolo bar Release up
/n\ - tremolo bar inverted dip
/n - tremolo bar return
-\n - tremolo bar Release down
S - shift slide
s - legato slide
/ -  slide into from below or out of upwards
\ -  slide into from above or out of downwards
~ - vibrato
W - wide vibrato
tr - trill
TP - tremolo picking
T - tapping
S - slap
P - pop
< - fade in
^ - brush up
v - brush down
Login or Register to remove this ad.

7 comments on Dark Cave

This tab is terrible

This tab is terrible

No u

What the hell are you talking about; this tab is great.

what the ...

This is top three songs I have heard ever.

Balla swag

Balla swag

This looks pretty good, I

This looks pretty good, I wish I had the skill to play it. jocuribarbi

AMAZING TAB!

WOW THIS TAB IS JUST OUTRIGHT AMAZING!

Well done and many thanks for posting this... now 5 more years of prctice to go until I come remotely anywhere close to playing this at half the speed LOL.

Thumbslap?

I think I know what a thumbslap is, but I'm not sure how I'm supposed to do one and hit other strings at the same time.