Champion Theme (Pokémon Gold & Silver) Guitar Tab

Submitted: Jan 29, 2011 by X-PokeTab-X (Last updated: Jan 29, 2011)

4.666665
Average: 4.7 (3 votes)
Download | Listen
Game: Pokémon Gold & Silver
Composer(s): Junichi Masuda, Go Ichinose
Style: Transcription
Series: Pokemon

This song is also called Lance Theme

AutoScroll: Slow | Medium | Fast
Pokémon- Lance Theme
Pokémon Gold and Silver
Junichi Masuda
X-PokeTab-X
29/01/11

e|--------------------------------------------------|
B|--------------------------------------------------|
G|------------------------------------------3-------|
D|-1-1--1-1--1-1--1-1-0--1-1--1-1--1-1--1-1----1-1--|
A|--------------------------------------------------|
E|--------------------------------------------------|

e|--------------------------------------------------|
B|------------------------------------2-------------|
G|--------------4-----------------------------------|
D|1-1--1-1--1-1----1-1--1-1--1-1--1-1---------------|
A|--------------------------------------------------|
E|--------------------------------------------------|

e|------------------------|
B|------------------------|
G|----3------4-----3------|
D|1-1----1-1---1-1---1-1-0|
A|------------------------|
E|------------------------|X4

e|---------------------------|
B|---------------------------|
G|----2------3--4------5---5-|
D|1-1----1-1-----------------|
A|---------------------------|
E|---------------------------|

e|--------------------------------------------------|
B|--4-----4--3--------------------5-------------2---|
G|-----3--------6--5--4--3--4------------4----------|
D|-----------------------------------2-2----4-4-----|
A|--------------------------------------------------|
E|--------------------------------------------------|X4

e|--------------------------------------------------|
B|-4-4---4---4---4---4---4---5----4-4---4---4---4---|
G|--------------------------------------------------|
D|--------------------------------------------------|
A|--------------------------------------------------|
E|--------------------------------------------------|

e|--------------------------------------------------|
B|4---4---7----4--------2---------------------------|
G|--------------------------------------------------|
D|-----------------1--------4-----1-----3----4------|
A|--------------------------------------------------|
E|--------------------------------------------------|


e|--------------------------|
B|--4--3--------4-3---------|
G|--------6--5------6-5-4-4-|
D|--------------------------|
A|--------------------------|
E|--------------------------|X2

e|---------------------------|
B|---------------------------|
G|---------4-------3-------1-|
D|-1-------------------------|
A|---------------------------|
E|---------------------------|

e|------------------------|
B|------------------------|
G|----3------4-----3------|
D|1-1----1-1---1-1---1-1-0|
A|------------------------|
E|------------------------|X4 

e-------|
B-------|
G-------|
D--1----|
A-------|
E-------|
Login or Register to remove this ad.