Ads

Champion Theme (Pokémon Gold & Silver) Guitar Tab

Submitted: May 18, 2009 by Laevateinn (Last updated: Feb 04, 2010)

4.42857
Average: 4.4 (7 votes)
Download | Listen
Game: Pokémon Gold & Silver
Composer(s): Junichi Masuda, Go Ichinose
Style: 2 or more instruments, Arrangement
Series: Pokemon

AutoScroll: Slow | Medium | Fast
#----------------------------------PLEASE NOTE---------------------------------#
#This file is the author's own work and represents their interpretation of the #
#song. You may only use this file for private study, scholarship, or research. #
#------------------------------------------------------------------------------##

Champion Theme
 from Pokémon Gold/Silver/Crystal

Composer: Go Ichinose, Junichi Masuda

Tabbed by LJtheZombie, 11/05/09

Gtr I (D G C F A D) - 'Lead I (Right)'
Gtr II (D G C F A D) - 'Lead II (Left)'
Gtr III (D G C F A D) - 'Rhythm'

  Q=202
 4/4
  Gtr I
  PM    PM      PM    PM      PM|    PM|      PM|    PM|
  Q  Q  Q  Q    Q  Q  Q  Q    E E Q  E E Q    E E Q  E E Q
|-------------|-------------|---------------|---------------|
|-------------|-------------|---------------|---------------|
|-------------|-------------|---------------|------------5--|
|-3-----3-----|-3-----3--2--|-3-3----3-3----|-3-3----3-3----|
|-------------|-------------|---------------|---------------|
|-------------|-------------|---------------|---------------|
|
| Gtr II
| PM    PM      PM    PM      PM|    PM|      PM|    PM|
| Q  Q  Q  Q    Q  Q  Q  Q    E E Q  E E Q    E E Q  E E Q
|-------------|-------------|---------------|---------------|
|-------------|-------------|---------------|---------------|
|-------------|-------------|---------------|---------------|
|-------------|-------------|---------------|------------3--|
|-3-----3-----|-3-----3--4--|-3-3----3-3----|-3-3----3-3----|
|-------------|-------------|---------------|---------------|
|
| Gtr III
| PM    PM      PM    PM      PM|    PM|      PM|    PM|
| Q  Q  Q  Q    Q  Q  Q  Q    E E Q  E E Q    E E Q  E E Q
|-------------|-------------|---------------|---------------|
|-------------|-------------|---------------|---------------|
|-------------|-------------|---------------|---------------|
|-------------|-------------|---------------|---------------|
|-------------|-------------|---------------|------------4--|
|-1-----1-----|-1-----1--2--|-1-1----1-1----|-1-1----1-1----|




  PM|    PM|      PM|    PM|      PM|    PM|      PM|    PM|
  E E Q  E E Q    E E Q  E E Q    E E Q  E E Q    E E Q  E E Q
|---------------|---------------|---------------|-----------------|
|---------------|---------------|---------------|------------4----|
|---------------|------------6--|---------------|-----------------|
|-3-3----3-3----|-3-3----3-3----|-3-3----3-3----|-3-3----3-3------|
|---------------|---------------|---------------|-----------------|
|---------------|---------------|---------------|-----------------|
|
| PM|    PM|      PM|    PM|      PM|    PM|      PM|    PM|
| E E Q  E E Q    E E Q  E E Q    E E Q  E E Q    E E Q  E E Q
|---------------|---------------|---------------|-----------------|
|---------------|---------------|---------------|-----------------|
|---------------|---------------|---------------|-----------------|
|---------------|------------3--|---------------|------------4----|
|-3-3----3-3----|-3-3----3-3----|-3-3----3-3----|-3-3----3-3------|
|---------------|---------------|---------------|-----------------|
|
| PM|    PM|      PM|    PM|      PM|    PM|      PM|    PM|
| E E Q  E E Q    E E Q  E E Q    E E Q  E E Q    E E Q  E E Q
|---------------|---------------|---------------|-----------------|
|---------------|---------------|---------------|-----------------|
|---------------|---------------|---------------|-----------------|
|---------------|---------------|---------------|-----------------|
|---------------|------------4--|---------------|------------4----|
|-1-1----1-1----|-1-1----1-1----|-1-1----1-1----|-1-1----1-1------|




  PM|    PM|      PM|    PM|      PM|    PM|      PM|    PM|
  E E Q  E E Q    E E Q  E E Q    E E Q  E E Q    E E Q  E E Q
|---------------|---------------|---------------|---------------|
|---------------|---------------|---------------|---------------|
|-----5------6--|-----5---------|-----5------6--|-----5---------|
|-3-3----3-3----|-3-3----3-3-2--|-3-3----3-3----|-3-3----3-3-5--|
|---------------|---------------|---------------|---------------|
|---------------|---------------|---------------|---------------|
|
| PM|    PM|      PM|    PM|      PM|    PM|      PM|    PM|
| E E Q  E E Q    E E Q  E E Q    E E Q  E E Q    E E Q  E E Q
|---------------|---------------|---------------|---------------|
|---------------|---------------|---------------|---------------|
|---------------|---------------|---------------|---------------|
|-----3------3--|-----3---------|-----3------3--|-----3------3--|
|-3-3----3-3----|-3-3----3-3-4--|-3-3----3-3----|-3-3----3-3----|
|---------------|---------------|---------------|---------------|
|
| PM|    PM|      PM|    PM|      PM|    PM|      PM|    PM|
| E E Q  E E Q    E E Q  E E Q    E E Q  E E Q    E E Q  E E Q
|---------------|---------------|---------------|---------------|
|---------------|---------------|---------------|---------------|
|---------------|---------------|---------------|---------------|
|---------------|---------------|---------------|---------------|
|-----3------4--|-----3---------|-----3------4--|-----3------1--|
|-1-1----1-1----|-1-1----1-1-0--|-1-1----1-1----|-1-1----1-1----|




  PM|    PM|      PM|    PM|      PM|    PM|      PM|    PM|
  E E Q  E E Q    E E Q  E E Q    E E Q  E E Q    E E Q  E E Q
|---------------|---------------|---------------|---------------|
|---------------|---------------|---------------|-----3------4--|
|-----5------6--|-----5---------|-----5------6--|---------------|
|-3-3----3-3----|-3-3----3-3-2--|-3-3----3-3----|-3-3----3-3----|
|---------------|---------------|---------------|---------------|
|---------------|---------------|---------------|---------------|
|
| PM|    PM|      PM|    PM|      PM|    PM|      PM|    PM|
| E E Q  E E Q    E E Q  E E Q    E E Q  E E Q    E E Q  E E Q
|---------------|---------------|---------------|---------------|
|---------------|---------------|---------------|---------------|
|---------------|---------------|---------------|------------3--|
|-----3------3--|-----3---------|-----3------4--|-----6---------|
|-3-3----3-3----|-3-3----3-3-4--|-3-3----3-3----|-3-3----3-3----|
|---------------|---------------|---------------|---------------|
|
| PM|    PM|      PM|    PM|      PM|    PM|      PM|    PM|
| E E Q  E E Q    E E Q  E E Q    E E Q  E E Q    E E Q  E E Q
|---------------|---------------|---------------|---------------|
|---------------|---------------|---------------|---------------|
|---------------|---------------|---------------|---------------|
|---------------|---------------|---------------|------------1--|
|-----3------4--|-----3---------|-----3------3--|-----4---------|
|-1-1----1-1----|-1-1----1-1-0--|-1-1----1-1----|-1-1----1-1----|




  H    H      W                       Q.     Q.     E E   Q   Q    Q   Q
|-----------|---------------------||--------------------|------------------|
|-6---------|-7-------------------||o-6-------------6-5-|-4---3------------|
|-----------|---------------------||---------5----------|---------/6---5---|
|------3----|---------------------||--------------------|------------------|
|-----------|---------------------||o-------------------|------------------|
|-----------|---------------------||--------------------|------------------|
|
| H    H      H.          S S S S     E  E E Q    E E E   E E E E  E E E E
|-----------|---------------------||--------------------|------------------|
|-----------|---------------------||o-------------------|------------------|
|-5---------|-6-----------5-6-7-8-||-----5------------6-|---5---4----3---2-|
|-----------|---------------------||--3----3-6----5-4---|-6---5----4---3---|
|------3----|---------------------||o-------------------|------------------|
|-----------|---------------------||--------------------|------------------|
|
|                 PM----------|          PM|    PM|   PM    PM  PM     PM|
| H    H      Q   E E E E E   E       E  E E E  E E E E   E E E E  E E E E
|-----------|---------------------||--------------------|------------------|
|-----------|---------------------||o-------------------|------------------|
|-----------|---------------------||--------------------|------------------|
|-3---------|---------------------||--------------------|------------------|
|-----------|-4-----3---2-----1---||o-3--3-3-3--3-3-3-3-|-3-3-3-3--3-3-3-3-|
|------1----|-----5---4---3-------||--1--1-1-1--1-1-1-1-|-1-1-1-1--1-1-1-1-|




                     PM|     PM|
   H       H         E E Q   E E Q     Q.     Q.     E E   Q   Q   Q   E E
|------------------|-----------------|-------------------|--------------------|
|----------7-------|-------------4---|-6-------------6-5-|-4---3--------------|
|-/6---------------|-3-3-6---3-3-----|--------5----------|---------6---5-6----|
|------------------|-----------------|-------------------|--------------------|
|------------------|-----------------|-------------------|--------------------|
|------------------|-----------------|-------------------|--------------------|
|
|  PM|     PM|       PM|     PM|
|  E E Q   E E Q     E E Q   E E Q     E  E E Q    E E E   E E E E E E E E
|------------------|-----------------|-------------------|--------------------|
|------------------|-----------------|-------------------|--------------------|
|------------------|-------------6---|----5------------6-|---5---4---3---2----|
|--4-4-6---4-4-8---|-4-4-8---4-4-----|-3----3-6----5-4---|-6---5---4---3------|
|------------------|-----------------|-------------------|--------------------|
|------------------|-----------------|-------------------|--------------------|
|
|    PM|   PM|       PM--|                PM|    PM|   PM    PM  PM    PM|
|  E E E E E E E E   E E E E E E E E   E  E E E  E E E E   E E E E E E E E
|------------------|-----------------|-------------------|--------------------|
|------------------|-----------------|-------------------|--------------------|
|------------------|-----------------|-------------------|--------------------|
|------------------|-----------------|-------------------|--------------------|
|--4-4-4-4-4-4-4-4-|---4---5-2-4---3-|-3--3-3-3--3-3-3-3-|-3-3-3-3-3-3-3-3----|
|--2-2-2-2-2-2-2-2-|-2---2-------5---|-1--1-1-1--1-1-1-1-|-1-1-1-1-1-1-1-1----|




  H       H         H       H        E   E E E E E E E   E   E E E Q   Q
|---------6-------|---------9------|-------------------|-------------------|
|-7---------------|-7--------------|-6---6---6---6---6-|-----6---6-7---7---|
|-----------------|----------------|-------------------|-------------------|
|-----------------|----------------|-------------------|-------------------|
|-----------------|----------------|-------------------|-------------------|
|-----------------|----------------|-------------------|-------------------|
|
| PM|     PM|       PM|     PM|
| E E Q   E E Q     E E Q   E E Q    E   E E E E E E E   E   E E E Q   Q
|-----------------|----------------|-------------------|-------------------|
|-----------------|-------------7--|-------------------|-------------------|
|-----------------|-----6----------|-5---5---5---5---5-|-----5---5-6---3---|
|-4-4-6---4-4-8---|-4-4-----4-4----|-------------------|-------------------|
|-----------------|----------------|-------------------|-------------------|
|-----------------|----------------|-------------------|-------------------|
|
|   PM|   PM|   PM--|   PM|   PM     PM--------|         PM--------|
| E E E E E E E E   E E E E E E Q    S S E E E E E E E   S S E E E E E E E
|-----------------|----------------|-------------------|-------------------|
|-----------------|----------------|-------------------|-------------------|
|-----------------|----------------|-------------------|-------------------|
|-----------------|----------------|-------------2-1-0-|-------------2-1-0-|
|-4-4-4-4-4-4-4-4-|-4-4-4-4-4-4-4--|-------------------|-------------------|
|-2-2-2-2-2-2-2-2-|-2-2-2-2-2-2-2--|-1-1-4-1-4-1-------|-1-1-2-1-2-1-------|




  E   E E E E E E E   E E E E Q   Q     H    H      H    H
|-------------------|-----------------|-----------|-----------|
|-6---6---6---6---6-|---6---6-9---9---|-6---------|-4---------|
|-------------------|-----------------|-----------|-----------|
|-------------------|-----------------|------3----|-----------|
|-------------------|-----------------|-----------|------6----|
|-------------------|-----------------|-----------|-----------|
|
| E   E E E E E E E   E E E E Q   Q     H    H      H    H
|-------------------|-----------------|-----------|-----------|
|-------------------|---------5---5---|-----------|-----------|
|-5---5---5---5---5-|---5---5---------|-5---------|-----------|
|-------------------|-----------------|-----------|-6---------|
|-------------------|-----------------|------3----|-----------|
|-------------------|-----------------|-----------|------4----|
|
| PM--------|         PM  PM  PM
| S S E E E E E E E   E E E E E E E E   H    H      H    H
|-------------------|-----------------|-----------|-----------|
|-------------------|-----------------|-----------|-----------|
|-------------------|-----------------|-----------|-----------|
|-------------2-1-0-|-----------2-1-0-|-----------|-----------|
|-------------------|---3---3---------|-3---------|-4---------|
|-1-1-4-1-4-1-------|-1---1---1-------|------1----|------1----|




  W                     W
|---------------------|---------------------|
|---------------------|---------------------|
|---------------------|---------------------|
|-3-------------------|-3-------------------|
|---------------------|---------------------|
|---------------------|---------------------|
|
| W                     W
|---------------------|---------------------|
|---------------------|---------------------|
|---------------------|---------------------|
|---------------------|---------------------|
|-4-------------------|-4-------------------|
|---------------------|---------------------|
|
| PM-----------------------------------------
| S S E E E S S E E E   S S E E E S S E E E
|---------------------|---------------------|
|---------------------|---------------------|
|---------------------|---------------------|
|---------------------|---------------------|
|---------------------|---------------------|
|-1-1-4-1-4-1-1-4-1-4-|-1-1-4-1-4-1-1-4-1-4-|




  W                     W
|---------------------|----------------------|
|---------------------|----------------------|
|---------------------|----------------------|
|-5-------------------|-6--------------------|
|---------------------|----------------------|
|---------------------|----------------------|
|
| W                     W
|---------------------|----------------------|
|---------------------|----------------------|
|---------------------|----------------------|
|---------------------|----------------------|
|-6-------------------|-8--------------------|
|---------------------|----------------------|
|
|-----------------------------------------|
| S S E E E S S E E E   S S E E E S S E E E
|---------------------|----------------------|
|---------------------|----------------------|
|---------------------|----------------------|
|---------------------|----------------------|
|---------------------|----------------------|
|-1-1-4-1-4-1-1-4-1-4-|-1-1-4-1-4-1-1-4-1-4--|




   Q    Q    Q    Q      E  E  E  E Q   Q      Q    Q    Q    Q      E  E  E  E Q   Q
|-13---12---11---10---|-13-12-11-10-9---9---|-13---12---11---10---|-13-12-11-10-9---9---|
|---------------------|---------------------|---------------------|---------------------|
|---------------------|---------------------|---------------------|---------------------|
|---------------------|---------------------|---------------------|---------------------|
|---------------------|---------------------|---------------------|---------------------|
|---------------------|---------------------|---------------------|---------------------|
|
|  Q    Q    Q    Q      Q     Q    Q   Q      Q    Q    Q    Q      E  E  E  E Q   Q
|---------------------|---------------------|---------------------|-----6---------------|
|--9----8----7----6---|-------------9---9---|--9----8----7----6---|--9-----6--7-9---9---|
|---------------------|--9-----8------------|---------------------|---------------------|
|---------------------|---------------------|---------------------|---------------------|
|---------------------|---------------------|---------------------|---------------------|
|---------------------|---------------------|---------------------|---------------------|
|
|    PM--------|         PM|                     PM--------|         PM---------------|
|  E E  E E  E E  E E    E  E  E  E E E E E    E E  E E  E E  E E    E  E  E  E E E E E
|---------------------|---------------------|---------------------|---------------------|
|---------------------|---------------------|---------------------|---------------------|
|---------------------|---------------------|---------------------|---------------------|
|-----------------3-4-|--------3--4-6---3-4-|-----------------3-4-|---------------------|
|----4----4----4------|-----4---------4-----|----4----4----4------|-----4-----4---4---4-|
|--2----2----2--------|--2------------------|--2----2----2--------|--2-----2----2---2---|




  W                 W                 W                 W
|-----------------|-----------------|-----------------|-----------------|
|-----------------|-----------------|-----------------|-----------------|
|-----------------|-6---------------|-5---------------|-3---------------|
|-3---------------|-----------------|-----------------|-----------------|
|-----------------|-----------------|-----------------|-----------------|
|-----------------|-----------------|-----------------|-----------------|
|
| W                 H       E E E E   W                 W
|-----------------|-----------------|-----------------|-----------------|
|-----------------|-----------------|-----------------|-----------------|
|-----------------|-----------------|-----------------|-----------------|
|-----------------|-6-------4---4---|-3---------------|-----------------|
|-----------------|-----------------|-----------------|-6---------------|
|-----------------|-----------------|-----------------|-----------------|
|
|   PM----------|                       PM----------|
| E E E E E E E E   E E E E E E E E   E E E E E E E E   E E E E E E E E
|-----------------|-----------------|-----------------|-----------------|
|-----------------|-----------------|-----------------|-----------------|
|-----------------|-----------------|-----------------|-----------------|
|-----------------|-------3---------|-----------------|-------4---------|
|-3-3-3-3-3-3-3-3-|---3-4---3---3---|-4-4-4-4-4-4-4-4-|---4-6---4---4---|
|-1-1-1-1-1-1-1-1-|-1-------1---1---|-2-2-2-2-2-2-2-2-|-2-------2---2---|




  PM|     PM|       PM|     PM|       PM|     PM|       PM|     PM|
  E E Q   E E Q     E E Q   E E Q     E E Q   E E Q     E E Q   E E Q
|-----------------|-----------------|-----------------|-----------------|
|-----------------|-----------------|-----------------|-----3-------4---|
|-----5-------6---|-----5-------4---|-----5-------6---|-----------------|
|-3-3-----3-3-----|-3-3-----3-3-----|-3-3-----3-3-----|-3-3-----3-3-----|
|-----------------|-----------------|-----------------|-----------------|
|-----------------|-----------------|-----------------|-----------------|
|
| PM|     PM|       PM|     PM|       PM|     PM|       PM|     PM|
| E E Q   E E Q     E E Q   E E Q     E E Q   E E Q     E E Q   E E Q
|-----------------|-----------------|-----------------|-----------------|
|-----------------|-----------------|-----------------|-----------------|
|-----------------|-----------------|-----------------|-------------3---|
|-----3-------3---|-----3-------3---|-----3-------3---|-----6-----------|
|-3-3-----3-3-----|-3-3-----3-3-----|-3-3-----3-3-----|-3-3-----3-3-----|
|-----------------|-----------------|-----------------|-----------------|
|
|   PM|   PM|   PM--|   PM|   PM  PM    PM|   PM|   PM--|   PM|   PM  PM
| E E E E E E E E   E E E E E E E E   E E E E E E E E   E E E E E E E E
|-----------------|-----------------|-----------------|-----------------|
|-----------------|-----------------|-----------------|-----------------|
|-----------------|-----------------|-----------------|-----------------|
|-----------------|-----------------|-----------------|-----------------|
|-3-3-3-3-3-3-3-3-|-3-3-3-3-3-3-3-3-|-3-3-3-3-3-3-3-3-|-3-3-3-3-3-3-3-3-|
|-1-1-1-1-1-1-1-1-|-1-1-1-1-1-1-1-1-|-1-1-1-1-1-1-1-1-|-1-1-1-1-1-1-1-1-|




  H               H
|---------------------------------|
|-6---------------7---------------|
|---------------------------------|
|---------------------------------|
|---------------------------------|
|---------------------------------|
|
| PM--|           PM--|
| E   E   Q       E   E   Q
|---------------------------------|
|---------------------------------|
|---------5---------------6-------|
|-3---3-----------3---3-----------|
|---------------------------------|
|---------------------------------|
|
| S S S S S S S S S S S S S S S S
|---------------------------------|
|---------------------------------|
|---------------------------------|
|---------------------------------|
|---------------------------------|
|-1-1-1---1-1-1---1-1-1---1-1-1---|




  H               H
|---------------------------------|
|-9---------------7---------------|
|---------------------------------|
|---------------------------------|
|---------------------------------|
|---------------------------------|
|
| PM--|           PM--|
| E   E   Q       E   E   Q
|---------------------------------|
|---------4-----------------------|
|-------------------------6-------|
|-3---3-----------3---3-----------|
|---------------------------------|
|---------------------------------|
|
| S S S S S S S S S S S S S S S S
|---------------------------------|
|---------------------------------|
|---------------------------------|
|---------------------------------|
|---------------------------------|
|-1-1-1---1-1-1---1-1-1---1-1-1---|




  H               H
|---------------------------------|
|-6---------------7---------------|
|---------------------------------|
|---------------------------------|
|---------------------------------|
|---------------------------------|
|
| PM--|           PM--|
| E   E   Q       E   E   Q
|---------------------------------|
|---------------------------------|
|---------5---------------6-------|
|-3---3-----------3---3-----------|
|---------------------------------|
|---------------------------------|
|
| S S S S S S S S S S S S S S S S
|---------------------------------|
|---------------------------------|
|---------------------------------|
|---------------------------------|
|---------------------------------|
|-1-1-1---1-1-1---1-1-1---1-1-1---|




  H               H
|-------------------------------------||
|-9---------------9b11---------------o||
|-------------------------------------||
|-------------------------------------||
|------------------------------------o||
|-------------------------------------||
|
| PM|             PM-----|
| S S E   Q       E      E   Q
|-------------------------------------||
|---------4------------------5-------o||
|-------------------------------------||
|-3-3-------------3------3------------||
|------------------------------------o||
|-------------------------------------||
|
| S S S S S S S S S    S S S S S S S
|-------------------------------------||
|------------------------------------o||
|-------------------------------------||
|-------------------------------------||
|------------------------------------o||
|-1-1-1---1---1-1-1------1---1-1-1----||

Duration Legend
---------------
W - whole; H - half; Q - quarter; E - 8th; S - 16th; T - 32nd; X - 64th; a - acciaccatura
+ - note tied to previous; . - note dotted; .. - note double dotted
Uncapitalized letters represent notes that are staccato (1/2 duration)
Irregular groupings are notated above the duration line
Duration letters will always appear directly above the note/fret number it represents the
duration for. Duration letters with no fret number below them represent rests. Multi-
bar rests are notated in the form Wxn, where n is the number of bars to rest for. Low
melody durations appear below the staff

Tablature Legend
----------------
h - hammer-on
p - pull-off
b - bend
pb - pre-bend
r - bend release (if no number after the r, then release immediately)
/\ - slide into or out of (from/to "nowhere")
s - legato slide
S - shift slide
- natural harmonic
[n] - artificial harmonic
n(n) - tapped harmonic
~ - vibrato
tr - trill
T - tap
TP - trem. picking
PM - palm muting
\n/ - tremolo bar dip; n = amount to dip
\n - tremolo bar down
n/ - tremolo bar up
/n\ - tremolo bar inverted dip
= - hold bend; also acts as connecting device for hammers/pulls
<> - volume swell (louder/softer)
x - on rhythm slash represents muted slash
o - on rhythm slash represents single note slash

Misc Legend
-----------
| - bar
|| - double bar
||o - repeat start
o|| - repeat end
*| - double bar (ending)
: - bar (freetime)
$ - Segno
& - Coda
Tempo markers - = BPM(8/16=s8/s16), where s8 = swing 8ths, s16 = swing 16ths

***************************************************************************************
* Generated using Power Tab Editor by Brad Larsen - http://powertab.guitarnetwork.org *
***************************************************************************************

Login or Register to remove this ad.

3 comments on Champion Theme

Awesome

5

sounds perfect and really awesome 5 stars
only difficult to read, looks messy

Dude, this sounds AWESOME!

5

Dude, this sounds AWESOME! Excelent arrangement! Thank you very much for sharing it with us!

I haz better

1

I haz better