Ads

Iki Town (Night) (Pokémon Sun & Moon) Guitar Tab

Submitted: Dec 29, 2016 by

5
Average: 5 (1 vote)
Download | Listen
Game: Pokémon Sun & Moon
Composer(s): Junichi Masuda, Go Ichinose, Hitomi Sato, Minako Adachi, Morikazu Aoki, Hideaki Kuroda, Tomoaki Oga
Style: Transcription
Series: Pokemon

AutoScroll: Slow | Medium | Fast
e---------------12-------13--12-------15------------------------------
B---13-12-13-15------------------13-----------------------------------
G---------------------------------------------------------------------
D---------------------------------------------------------------------
A---------------------------------------------------------------------
E---------------------------------------------------------------------

e----------------------------12h13--12--------------------------------
B--12--12h15---13-----------------------13h15-------------------------
G-------------------14----14------------------------------------------
D---------------------------------------------------------------------
A---------------------------------------------------------------------
E---------------------------------------------------------------------

e---------------12-------13--12-------15------------------------------
B---13-12-13-15------------------13-----------------------------------
G---------------------------------------------------------------------
D---------------------------------------------------------------------
A---------------------------------------------------------------------
E---------------------------------------------------------------------

e----------------------------12h13--12--------------------------------
B--12--12h15---13-----------------------13h15---13-12-13-------13-----
G-------------------14----14------------------------------------------
D---------------------------------------------------------------------
A---------------------------------------------------------------------
E---------------------------------------------------------------------

e--12-------17--15-----------15--18-17-----15-------------------------
B------15--------------17-18-----------17--------18-------------------
G---------------------------------------------------------------------
D---------------------------------------------------------------------
A---------------------------------------------------------------------
E---------------------------------------------------------------------

e--15-13---13-12---12-------------------------------------------------
B-----------------------15--13--12--13--------------------------------
G---------------------------------------------------------------------
D---------------------------------------------------------------------
A---------------------------------------------------------------------
E---------------------------------------------------------------------

Login or Register to remove this ad.

3 comments on Iki Town (Night)

You did great but the hammers

5

You did great but the hammers threw me off bit.

If you speed it up it's

5

If you speed it up it's route1

you should add more sun and

5

you should add more sun and moon tabs