Ads

Have a Break at the Café (Pokémon Sun & Moon) Guitar Tab

Submitted: Sep 25, 2020 by H.F. (Last updated: Oct 02, 2020)

0
Download | Listen
Game: Pokémon Sun & Moon
Composer(s): Junichi Masuda, Go Ichinose, Hitomi Sato, Minako Adachi, Morikazu Aoki, Hideaki Kuroda, Tomoaki Oga
Style: Arrangement, Fingerstyle, Natural harmonics
Series: Pokemon

AutoScroll: Slow | Medium | Fast
Title: Have a Break at the Café
Album: Pokémon Sun and Moon
Music: Hitomi Sato
Tabber: H.F.

Tempo = 80

Legend
L - tied note
h - hammer on/pull off
s - slide
. - staccato


E |--2--------2----------------------------------------|
B |--3-----------------12L---12------------------------|
G |-----------2----------------------------------------|
D |--5--------5----------------------------------------|
A |----------------------------------------------------|
E |----------------------------------------------------|


-----2-----2-----------------------0----------------|
-----3-----------------------3-----------3----------|
-----------2--------------------2--------2----------|
-----5-----5-----------------------------4----------|
----------------------------------------------------|
----------------------------------------------------|


--2--------2----------------------------------------|
--3--------3-----------7L-7-------------------------|
--4--------4--------7-------------------------------|
--5--------5-----7----------------------------------|
----------------------------------------------------|
----------------------------------------------------|


-----2-----2----------------------------------------||
-----3-----3----------------------------------------||
-----4-----4----------------------------------------||
-----5-----5-----------------7s----2--------2--0----||
-----------------------------------------0----------||
----------------------------------------------------||


-2--------2-----------------7--5-----7-----0--2----|
-3--------3-----------3----------------------------|
o4--------4-----0h-2--------------------7----------|
o--------------------------------------------------|
---------------------------------------------------|
-3--------3----------------------------------------|


-----3h-2-----0--------------7--5-----3--2--0-------|
-----------------3-----------------------------3----|
-----------2--------------------------4--2--0-------|
----------------------------------------------------|
----------------------------------------------------|
--3--------3----------------------------------------|


--2--------2-----------------6--5-----6-----0--2----|
--3--------3-----------3----------------------------|
--3--------3-----0h-2--------------------7----------|
-----------0-----------------------------------0----|
--1-------------------------------------------------|
-----------------------------------------6----------|


-----3h-2-----0--------------5--3-----2--0-----0----|
-----------------3-----------2--0-----------3-------|
--0--------3--------------------------2--0----------|
----------------------------------------------------|
----------------------------------------------------|
-----3-----3----------------------------------------|


-----------------7--5--3--2h-3--2-------------------|
-----------3-----------------------------3----------|
-----0h-2--------------------------2----------------|
----------------------------------------------------|
----------------------------------------------------|
--2--------2-----------------------2----------------|


-----------------7--5--3--2h-3--5--2----------------|
-----------3-----------------------------3----------|
-----0--2--------------------------------1----------|
----------------------------------------------------|
--2-----0--2-----------------------2----------------|
-----------------------------------------1----------|


-----------------------2-----------2--3h-4--5-------|
-----------------3--------------3--------------3----|
-----0h-1--2-----------------2----------------------|
--2-------------------------------------------------|
-----------------------------------------------0----|
-----0-----0----------------------------------------|


--------1h-0-----------1h-0-----5s-7--------0-------|
--------------3--------------3-----------------7----|
-----------------2-----------------------7----------|
----------------------------------------------------|
-----0-----------------------0----------------------|
--------------------------------------4-------------|


--------7-----5-----7-------------------------------|
-----------------------------6h-5-------------------|
--0--------0-----------7-----------7-----2----------|
-----------------------------------------4----------|
----------------------------------------------------|
----------------------------------------------------|


-----------0h-------2--------------------------3--------2h-3h-2-----------------
--3--------------------------3-----------------------------------3--------------
--0--------------------------0--------------------------------------------------
--------------------------------------------------------------------------------
--------------------------------------------------------------------------------
--------------------------------------------------------------------------------


--------------------------------------------------------------------|
------------3--------------------------3----------------------------|
---2-----------------------------------0----------------------------|
---------------------------------------4----------------------------|
--------------------------------------------------------------------|
--------------------------------------------------------------------|


--------10-------------------------7-----5--3--2L---|
--0--------10----7h-8--10---------------------------|
--0--------0-----------------7----------------------|
----------------------------------------------------|
----------------------------------------------------|
----------------------------------------------------|


--2--------3h-------5--------0--------------------------------------------------
-----------------------------------------------3--------6-----------------------
-----------3-----------------3--------------------------------------------------
-----------5-----------------5--------------------------------------------------
--------------------------------------------------------------------------------
--------------------------------------------------------------------------------


------5.----------4.----------3.----------2.----------1L------------|
--------------------------------------------------------------------|
--------------------------------------------------------------------|
--------------------------------------------------------------------|
--------------------------------------------------------------------|
--------------------------------------------------------------------|


--1-----0--2h-3--5-----------------0-----0----------|
-----------------------3----------------------------|
--2--------2-----------------2-----------------7L---|
--4--------4-----------------------------------9L---|
-----------------------------------------------9L---|
----------------------------------------------------|


-----------------------------------------------------------------10-------------
-----------------------------7--------8h-------9--------10----------------------
--7-----------------------------------------------------------------------------
--9--------------------------9--------------------------------------------------
--9--------------------------9--------------------------------------------------
--------------------------------------------------------------------------------


------------------0.----------1.----------2.----------3.----4-------|
------6.------------------------------------------------------------|
------------------------------------------2-------------------------|
------------------------------------------4-------------------------|
--------------------------------------------------------------------|
--------------------------------------------------------------------|


--5-----------------------------------------2h-3----|
-----3-----3--------3--------3----------------------|
-----4-----4-----2-----------4----------------------|
-----2-----2-----------------2----------------------|
----------------------------------------------------|
----------------------------------------------------|


--5--------7-----------------0---------------------|||
--3-----------------6-----------------------0------|||
-----------7-----7-----------------2--0-----------o|||
-----------------------------------------4--2h-0--o|||
--0--------0-----------------0--------0------------|||
---------------------------------------------------|||

Login or Register to remove this ad.