Ads

Rustboro City (Pokémon Ruby & Sapphire) Guitar Tab

Submitted: May 17, 2020 by H.F. (Last updated: May 19, 2020)

4.666665
Average: 4.7 (3 votes)
Download | Listen
Game: Pokémon Ruby & Sapphire
Composer(s): Junichi Masuda, Go Ichinose, Morikazu Aold
Style: Arrangement, Fingerstyle
Series: Pokemon

AutoScroll: Slow | Medium | Fast
Title: Rustboro City
Album: Pokémon Ruby/Sapphire/Emerald
Music: Go Ichinose, Morikazu Aoki, Junichi Masuda
Tabber: H.F.
Tempo = 128

Legend
L - tied note
h - hammer on/pull off


E |----------------------------||-------------------3--1----|
B |-----------1----------------||---------------------------|
G |-----2--3-----3--2--0--2----||o--------------------------|
D |----------------------------||o3--------------3----------|
A |----------------------------||-1--------1----------------|
E |--------------------1-------||-------------1-------------|


-----1----------------------|----------------------------|
-----3-----4--3-----1--2----|--3--------------4-----3----|
-----------------3----------|----------------------------|
----------------------------|----------------------------|
--1-------------------------|--3--------3----------------|
--------------1-------------|--------------3-------------|


----------------------------|----------------------------|
----------------------------|-----------1----------------|
--0--------------0--0--2----|--3-----------2--------0----|
----------------------------|----------------------------|
--3--------3----------------|--------------3-------------|
--------------3-------------|--1-------------------------|


--------------4--2--1-------|--1--------1-----------1L---|
-----------------------4----|--2-----1--1--------1--4L---|
-----2----------------------|-----3-----1-----3-----3L---|
-----------3--------1-------|--4-------------------------|
----------------------------|-----------4-----------3L---|
--1-------------------------|----------------------------|


--1--------4-----2--1-------|--------------------3--1----|
--4-----1--------------4----|--1-----3-------------------|
--3--3-----3----------------|--2--------3-----3----------|
----------------------------|----------------------------|
--3--------2----------------|--1-------------------------|
----------------------------|--------------1-------------|


-----1----------------------|----------------------------|
-----3-----4--3-----1--2----|--3--------------4-----3----|
-----------------3----------|----------------------------|
----------------------------|----------------------------|
--1-------------------------|--3--------3----------------|
--------------1-------------|--------------3-------------|


----------------------------|----------------------------|
--1-------------------------|-----------1----------------|
-----3-----0-----0--0--2----|--3-----------2--------0----|
----------------------------|----------------------------|
--3-------------------------|--------------3-------------|
--------------3-------------|--1-------------------------|


----------------------------|--1--------1-----------1L---|
----------------------------|--2-----1--1--------1--4L---|
-----2--------1-------------|-----3-----1-----3-----3L---|
-----------4-----4--3--1----|--4-------------------------|
--------------3-------------|-----------4-----------3L---|
--1-------------------------|----------------------------|


--1--------1--------2-------|--3-------------------------|
--4-----1--0----------------|--3--------------------1----|
--3--3-----2----------------|--------0--------0--2-------|
-----------3----------------|--1-------------------------|
--3-------------------------|--------------1-------------|
----------------------------|----------------------------|


----------------------------|--1--------------------1----|
-----1--------3--1--3--4----|-----------------4--4-------|
--------3-------------------|----------------------------|
--1-----4-------------------|--0--------0----------------|
--------------1-------------|--------------0-------------|
----------------------------|----------------------------|


--3-----1-------------------|----------------------------|
--------1-----1--0--1--3----|--4-----------------4-------|
--------1-------------------|-----------3-----3-----3----|
--0-------------------------|----------------------------|
----------------------------|--3-------------------------|
--------------4-------------|--------------3-------------|


----------------------------------------------------|
----------------------------------------------------|
--3-----3-----2-----------------0-----2-----2h-3----|
--------------------------1-------------------------|
----------------------------------------------------|
--1-------------------------------------------------|


----------------------------|----------------|--3-------------------------|
--1-------------------------|--3-------------|--------------------1--4----|
-----3--2--3-----2----------|-----4--1-------|--------3--------3----------|
-----------------------3----|-----------3----|--1-------------------------|
--1-----------1-------------|----------------|--------------1-------------|
----------------------------|--4-----3-------|----------------------------|


--------------------1-------|----------------------------|
-----4--3-----4-------------|--3--------3-----2--2--3----|
----------------------------|----------------------------|
--1-----4-------------------|--0-------------------------|
--------------1-------------|--------------0-------------|
----------------------------|----------------------------|


--3-----1-----------------------------1-------------|
--1-----------------4-----------3h-4----------------|
--------------1-------------------------------------|
--0-------------------------------------------------|
--------------------------------3-----2-------------|
--------------------------4-------------------------|


----------------------------|--------------------1-------|
--3--------------------1----|--4--4--3-----4-------------|
--------3--------3--3-------|----------------------------|
----------------------------|--------------4-------------|
--3-------------------------|--3-------------------------|
--------------3-------------|----------------------------|


----------------------------|---------------------------||
--3--1----------------------|---------------------------||
--2-----3--0-----2----------|-----3--3--3--3--2--0--2--o||
-----------------------3----|-----0--0--0--0-----------o||
--1-------------------------|-----1---------------------||
--------------1-------------|--------------------1------||


----------------------------|----------------------------|
--------------3-----6-------|--3--------------------1----|
--------3--5----------------|--------3--------3--3-------|
-----3--------3-------------|----------------------------|
-----5--------------2-------|--3-------------------------|
----------------------------|--------------3-------------|


--------------------1-------|----------------------------|--------3-------||
--4--4--3-----4-------------|--3--1----------------------|--1-----3-------||
----------------------------|--2-----3--0-----2-----3----|--------2-------||
--------------4-------------|----------------------------|--3-------------||
--3-------------------------|--1-------------------------|--1-------------||
----------------------------|--------------1-------------|----------------||

Login or Register to remove this ad.

5 comments on Rustboro City

If there is error when

If there is error when downloading the gp5 or midi file,
you can download them from below.

gp5

https://drive.google.com/file/d/1HDnQbyLL8iZZ8g1RNZjYBPM0m03hPIA9/view?usp=sharing

midi

https://drive.google.com/file/d/1GkJzR6nN9qaIvQNOFhXoKRym1svuFOnS/view?usp=sharing

Incredible

5

Been hoping someone would do this for a while. It actually grooves super well on guitar. Thanks!

cool stuff. i was kinda

cool stuff. i was kinda hoping there would be some slides in there.

I found out that this goes

I found out that this goes better with capo 1st.

I updated the TAB.

Sorry for inconvenience.


https://drive.google.com/drive/folders/1823N5Ampt_XiJDDiQ9fBNxnmpzVSpLfm\?usp=sharing

Your work is amazing. This

Your work is amazing. This brings back precious memories. Thank you!