Ads

Route 104 (Pokémon Ruby & Sapphire) Guitar Tab

Submitted: Oct 30, 2020 by H.F. (Last updated: Nov 15, 2020)

5
Average: 5 (1 vote)
Download | Listen
Game: Pokémon Ruby & Sapphire
Composer(s): Junichi Masuda, Go Ichinose, Morikazu Aold
Style: Arrangement, Fingerstyle
Series: Pokemon

AutoScroll: Slow | Medium | Fast
Title: Route 104
SubTitle: Pokémon Ruby/Sapphire/Emerald
Music: Go Ichinose, Morikazu Aoki, Junichi Masuda
Tabber: H.F.

Tempo = 128

Legend
h - hammer on/pull off


E ||-------2--0----------------|----------------------------|
B ||-0--------------4--2--0----|----------------------------|
G ||o---1----------------------|--2-----------------1--2----|
D ||o--------------------------|--0-------------------------|
A ||-------------2-------------|--------------0-------------|
E ||-0-------------------------|----------------------------|


----------------------------------------------------|
--0-----------------------------------0-------------|
--------------------------------1h-2--------1h-2----|
----------------------------------------------------|
--------------------------2-------------------------|
--0-------------------------------------------------|


----------------------------------------|--0-----7--5-----4--2--0----|
--0--------------------3--3--3--3--4----|--0-----------------0-------|
----------------------------------------|-----------------------2----|
--0-----------------0-------------------|-----6----------------------|
-----------0----------------------------|--------------2-------------|
----------------------------------------|--0-------------------------|


----------------------------|--0-----------------5--7----|
--3-----------------2--3----|-----------0--2-------------|
-----1----------------------|--------2-------------------|
--0-----4--2--0-------------|----------------------------|
--------------0-------------|--4-----------0-------------|
----------------------------|----------------------------|


--8-----------10h8--7--------7----------|
--5-----------------7-------------------|
----------------------------------------|
--0-------------------------------------|
----------------------------------------|
--------------------7-------------------|


--4--------5--------7--------5-----------------4--------2h----4-----0-------|
--5-------------------------------------------------------------------------|
----------------------------------------------------------------------------|
----------------------------------------------------------------------------|
--0--------0--------------------------0--------0----------------------------|
----------------------------------------------------------------------------|


--2-------------------------|
--0-----------0-------------|
----------------------------|
--------1-----------7-------|
--2--2--------2-----0-------|
----------------------------|


-----------------------------7-----------------5--------4h----5-------------|
--4--------5--------7-----------------------------------------------4-------|
--------------------------------------------------------4-------------------|
--6-------------------------------------------------------------------------|
----------------------------------------------------------------------------|
--4--------4--------------------------4--------4----------------------------|


--2-----1-----2-----4-------|
--2-----1-----0-------------|
--------------------3-------|
----------------------------|
--4--4--------2--2----------|
----------------------------|


--0--------------------------------------------------------------0----------|
--------------------------------------2--------4----------------------------|
--2--------------------------------------------1----------------------------|
----------------------------------------------------------------------------|
--0--------0--------------------------0-------------------------------------|
--------------------------0-----2-------------------------------------------|


--0-------------------------------------------------------------------------|
--------------------4-----------------2-----------5-----------4-------------|
--2-----------------------------------------------2-------------------------|
--------------------------------------4-------------------------------------|
--2--------2--------------------------2-----------------2-------------------|
----------------------------------------------------------------------------|


----------------------------------------------------------------------------|
--------------------------------0-------------------------------------------|
--6-----------------------------------------------------1-------------------|
--6-------------------------------------------------------------------------|
----------------------------------------------------------------------------|
--4--------4--------------0-----------4--------4----------------------------|


--4-------------------------------------------------------------------------|
--------------------------------------0-------------------------------------|
--6-----------------------------------1-------------------------------------|
----------------------------------------------------------------------------|
--4--------4--------------------3-----2--------2--------1-------------------|
----------------------------------------------------------------------------|


--4--2----------------------|-----0--2--2-----0----------|----------------|
--2-----5--5-----4--2-------|--4-----------------4-------|--6--------4----|
--2-------------------------|--4-----------------5-------|--6-------------|
----------------------------|--------------------4-------|--6--------4----|
--0-------------------------|--2-----------------3-------|--4-------------|
----------------------------|----------------------------|----------------|


---------------|||
--2-----0------|||
--------------o|||
--3-----1-----o|||
-----------2---|||
---------------|||

Login or Register to remove this ad.