Ads

Littleroot Town (Pokémon Ruby & Sapphire) Guitar Tab

Submitted: Nov 30, 2015 by quinndangle2 (Last updated: Feb 27, 2016)

5
Average: 5 (3 votes)
Download | Listen
Game: Pokémon Ruby & Sapphire
Composer(s): Junichi Masuda, Go Ichinose, Morikazu Aold
Style: Arrangement, Fingerstyle
Series: Pokemon

AutoScroll: Slow | Medium | Fast

Littleroot Town
From Pokemon Ruby & Sapphire
Composed by Go Ichinose
Tabbed by Brent Quinn

Based off the tab by Bradsta // piano arrangement by dahans

Drop D Tuning
Tempo ~ 110
4/4 Time

     H          E   E   E   E      Q.    E   E   E   E   E     Q.    E   E   E   E   E
E|------------------------------||---------------------------|---------------------------|
B|------------------------------||---------------------------|-1-----3-------------------|
G|--------------------------0---||*2-----0---2---0---2---3---|-----------2-------2---5---|
D|----------------------3-------||*--------------------------|---------------------------|
A|------------------3-----------||-----------3---------------|-0-----0---4---0-----------|
D|----------------------2-------||-3-----3-------3-------5---|-----------------------5---|


   Q    E   E   E   E   E   E     E   E   E   E   E   E   E   E     Q.    E   E   E   E   E
E|------0-----------------------|---------------------------------|---------------------------|
B|-3------------3---------------|-----------------3---------------|-----------1---------------|
G|----------------------2---0---|-------------2-------------------|---------------3---3---2---|
D|------------------------------|-3---2---3---------------0---2---|-3---------------------0---|
A|----------0---4---0-----------|-3-----------0---2-------0-------|-----------0---0-----------|
D|-0------------------------5---|---------------------3-------5---|-3-----3-------------------|


   Q.    E   E   E   E   E     Q.    E   E   E   E   E     Q.    E   E   E   E   E
E|---------------------------|---------------------------|---------------------------|
B|-----------3---------------|---------------------------|---------------------------|
G|---------------2---2---0---|-----------0---------------|-----------0-------5---3---|
D|-3---------------------0---|-3-----------------2---0---|-2-----3-----------3-------|
A|---------------------------|-3-----3-------3---1-------|-----------3---3-----------|
D|-5-----0---5---5-----------|-----------------------5---|-2-----2-------5-------5---|


   Q.    E   E   E   E   E     E   Q    E   E   E   E   E     Q    E   E   E   E   E   E
E|---------------------------|------------------------------|------0-----------------------|
B|---------------------------|-----1----3-------------------|-3------------6---------------|
G|-2-----0---2---0---2---3---|-L------------2---0---2---5---|----------------------2---0---|
D|---------------------------|------------------------------|------------------------------|
A|-----------3---------------|-0--------0---4---0-----------|----------0---4---0-----------|
D|-3-----3-------3-------5---|--------------------------5---|-0------------------------5---|


   E   E   E   E   E   E   E   E     Q.    E   E   E   E   E     Q.    E   E   E   E   E
E|---------------------------------|---------------------------|---------------------------|
B|-----------------3---------------|-----------1---------------|-----------3---------------|
G|-------------2-------------------|---------------3---3---2---|---------------2---2---0---|
D|-3---2---3---------------0---2---|-3---------------------0---|-3---------------------0---|
A|-3-----------0---2-------0-------|-----------0---0-----------|---------------------------|
D|---------------------3-------5---|-3-----3-------------------|-5-----0---5---5-----------|


   Q.    E   E   E   E   E     Q.    E   E   E   E   E     Q.    E   E   E   E   E
E|---------------------------|---------------------------|---------------------------|
B|---------------------------|-------------------1-------|-1---------2---------------|
G|-----------0---------------|-0-----2---3-------2---3---|---------------3---2---0---|
D|-3-----------------2---3---|---------------3-----------|---------------------------|
A|-3-----3-------3---1-------|-----------3---3-------3---|-3-----3---4---4-------1---|
D|-----------------------5---|-2-----2-------------------|---------------------------|


   E   Q    E   E   E   E   E     Q.    E   E   E   E   E     E   Q    E   E   E   E   E
E|------------------------------|---------------------------|------------------------------|
B|------------------------------|---------------------------|------------------------------|
G|--------------------------2---|-0-------------------------|--------------0-------2---3---|
D|-3---3----2---0-------3-------|---------------3---0---3---|-2---2----3-------------------|
A|-0--------5---1-----------0---|-1---------------------5---|-3--------0---1---1-----------|
D|------------------3-----------|-------5---2---5-----------|--------------------------5---|

   Q.    E   E   E   E   E     E   E   E   E   E   E   E   E     Q.    E   E   E   E   E
E|-----------------------0---|-3---1---0---1-----------1---5---|-3---------L---1-----------|
B|-1---------L-------3-------|-----------------3---------------|-------------------3---6---|
G|---------------2-----------|---------------------------------|---------------------------|
D|---------------------------|-------------0-------------------|---------------------------|
A|-0-----0---4---0-------4---|-----------------2---2-----------|-1---------2---2-----------|
D|---------------------------|-3---------------------------5---|-------5---------------5---|


   E   Q    E   E   E   E   E 
E|-0---0----1---3---------------||
B|------------------------------||
G|----------------------3---0--*||
D|----------3------------------*||
A|-3------------3---3-----------||  Repeat ad infinitum
D|--------------------------5---||

Key
W - Whole note
H - Half
Q - Quarter
E - Eighth
L - Tied note
. - dotted note

Login or Register to remove this ad.

5 comments on Littleroot Town

Criminally Underappreciated

5

Great work buddy!

It is a nice tab. I think it

5

It is a nice tab. I think it also works out rather nicely tuned down the full step.

Thanks Guys!

Thanks Mecha and Dao! it always amazes me how you can spot stuff like that!

Here it is in D Standard; obviously it can be played in standard tuning too it just won't be in the original key

     H          E   E   E   E     Q.    E   E   E   E   E     Q.    E   E   E   E   E
D|------------------------------|---------------------------|-------0-------------------|
A|------------------------------|-0---------0-------0---1---|-3---------0-------0---3---|
F|----------------------0---2---|-------2-------2-----------|---------------------------|
C|------------------0-----------|-----------0---------------|-----------1---------------|
G|------------------------------|-----------------------0---|-2-----2-------2-------0---|
D|----------------------2-------|-3-----3-------3-----------|---------------------------|

   Q    E   E   E   E   E   E     E   E   E   E   E   E   E   E     Q.    E   E   E   E   E
D|-0----2-------0---------------|-----------------0---------------|---------------------------|
A|----------------------0-------|-------------0-------------------|-----------3---1---1---0---|
F|--------------------------2---|-0-------0-----------------------|-0-------------------------|
C|--------------1---------------|-0---4-------------------2---4---|-----------------------2---|
G|----------2-------2-------0---|-------------2---4-------2---0---|-----------2---2-----------|
D|-0----------------------------|---------------------3-----------|-3-----3-------------------|

   Q.    E   E   E   E   E     Q.    E   E   E   E   E     Q.    E   E   E   E   E
D|-----------0---------------|---------------------------|---------------------------|
A|---------------0---0-------|---------------------------|-------------------3---1---|
F|-0---------------------2---|-0---------2---------------|-------0---2-------0-------|
C|-----------------------2---|-0-----0-------0---4---2---|-4---------0---0-----------|
G|-0---------0---0-----------|-------------------3---0---|---------------0-------0---|
D|-------0-------------------|---------------------------|-2-----2-------------------|

   Q.    E   E   E   E   E     E   Q    E   E   E   E   E     Q    E   E   E   E   E   E
D|---------------------------|----------0-------------------|-0----2-------3---------------|
A|-0---------0-------0---1---|-L---3--------0-------0---3---|----------------------0-------|
F|-------2-------2-----------|------------------2-----------|--------------------------2---|
C|-----------0---------------|--------------1---------------|--------------1---------------|
G|-----------------------0---|-2--------2-------2-------0---|----------2-------2-------0---|
D|-3-----3-------3-----------|------------------------------|-0----------------------------|

   E   E   E   E   E   E   E   E     Q.    E   E   E   E   E     Q.    E   E   E   E   E
D|-----------------0---------------|---------------------------|-----------0---------------|
A|-------------0-------------------|-----------3---1---1---0---|---------------0---0-------|
F|-0-------0-----------------------|-0-------------------------|-0---------------------2---|
C|-0---4-------------------2---4---|-----------------------2---|-----------------------2---|
G|-------------2---4-------2---0---|-----------2---2-----------|-0---------0---0-----------|
D|---------------------3-----------|-3-----3-------------------|-------0-------------------|

   Q.    E   E   E   E   E     Q.    E   E   E   E   E     Q.    E   E   E   E   E
D|---------------------------|---------------------------|---------------------------|
A|---------------------------|-------0---1-------3---1---|-3---------4---1---0-------|
F|-0---------2-----------0---|-2-------------0---4-------|-----------------------2---|
C|-0-----0-------0---4-------|-----------0---0-------0---|-0-----0---1---1-----------|
G|-------------------3---0---|---------------------------|-----------------------3---|
D|---------------------------|-2-----2-------------------|---------------------------|

   E   Q    E   E   E   E   E     Q.    E   E   E   E   E     E   Q    E   E   E   E   E
D|------------------------------|---------------------------|------------------------------|
A|--------------------------0---|---------------------------|----------------------0---1---|
F|-0---0----------------0-------|-2-------------0-------0---|----------0---2---------------|
C|----------4---2---------------|-------------------2---2---|-4---4------------------------|
G|-2------------3-----------2---|-3-----0-------0-----------|-5--------2---3---3-------0---|
D|----------0-------3-----------|-----------2---------------|------------------------------|

   Q.    E   E   E   E   E     E   E   E   E   E   E   E   E     Q.    E   E   E   E   E
D|-------------------0---2---|-5---3---2---3---0-------3---7---|-5---------5---3---0---3---|
A|-3---------3---0-----------|---------------------------------|---------------------------|
F|---------------------------|---------------------------------|---------------------------|
C|-----------1-----------1---|-------------2-------------------|---------------------------|
G|-2-----2-------2-----------|-----------------4---4-------0---|-3-----0---4---4-------0---|
D|---------------------------|-3-------------------------------|---------------------------|

   E   Q    E   E   E   E   E 
D|-2---2----3---5---------------|
A|----------------------1-------|
F|----------0---------------2---|
C|-0------------0---0-----------|
G|--------------------------0---|
D|------------------------------|

My "capo-sense" was tingling

My "capo-sense" was tingling lol. I've got enough guitars to afford to keep one tuned to D standard. Sometimes I put a capo on 2 to play it in standard for a change in tone.

Also, if you wanted to, you can just change the pitch of the mp3 up by two semi-tones in Audacity.

oo nice!

5

Good job bro!