Ads

Littleroot Town (Pokémon Ruby & Sapphire) Guitar Tab

Submitted: May 25, 2015 by Bradsta

5
Average: 5 (8 votes)
Download | Listen
Game: Pokémon Ruby & Sapphire
Composer(s): Junichi Masuda, Go Ichinose, Morikazu Aold
Style: Transcription
Series: Pokemon

AutoScroll: Slow | Medium | Fast
Song: Littleroot Town
Game: Pokémon Ruby & Sapphire
Composer(s): Junichi Masuda, Go Ichinose, Morikazu Aold
Tabber: Bradsta
Tuning: EADGBe (standard)
Date: 5/17/2015

e|--------||-----------|------------------8--|----10------------|9--10----12----10--|
B|--------||8--10------|8--10--8--10--11-----|--------10----10--|-------------------|
G|----10--||-----------|---------------------|------------------|-------------------|
D|10------||-----------|---------------------|------------------|-------------------|
A|--------||-----------|---------------------|------------------|-------------------|
E|--------||-----------|---------------------|------------------|-------------------|

e|--------------------|----10--------------|----8--------------|--------10----------|
B|--10--8-------------|10------------------|-------11--11--10--|------------10--10--|
G|---------10--9--10--|----------7--9--10--|-------------------|10------------------|
D|--------------------|--------------------|-------------------|--------------------|
A|--------------------|--------------------|-------------------|--------------------|
E|--------------------|--------------------|-------------------|--------------------|

e|---------------|-----------------|-------8------------|--------------------|
B|8--------------|-----------------|8---------11--10----|--8--10--8--10--11--|
G|---10----------|9--7--9------10--|--------------------|--------------------|
D|---------------|-----------------|---10---------------|--------------------|
A|---------------|-----------------|--------------------|--------------------|
E|---------------|-----------------|--------------------|--------------------|

e|--8--10-------------|9--10----12----13--|--------------------|----10--------------|
B|---------10--8--10--|-------------------|--10--8-------------|10------------------|
G|--------------------|-------------------|---------10--9--10--|----------7--9--10--|
D|--------------------|-------------------|--------------------|--------------------|
A|--------------------|-------------------|--------------------|--------------------|
E|--------------------|-------------------|--------------------|--------------------|

e|----8--------------|--------10----------|---------------|--------------------|
B|-------11--11--10--|------------10--10--|8--------------|-------8--10--11----|
G|-------------------|10------------------|---10----------|9--10---------------|
D|-------------------|--------------------|---------------|--------------------|
A|-------------------|--------------------|---------------|--------------------|
E|-------------------|--------------------|---------------|--------------------|

e|--------8------9--|---------------------|-------------------|---------------|
B|10--11------------|11--10--8------------|------------10--8--|---------------|
G|------------------|-----------10--10----|9--7----10---------|--------10--7--|
D|------------------|---------------------|-------------------|---------------|
A|------------------|---------------------|-------------------|---------------|
E|------------------|---------------------|-------------------|---------------|

e|-------------------|----------8------|--------8--12--15--|13--12--13--10----13--|
B|----------------8--|--10--11---------|----10-------------|----------------------|
G|10--9--9----10-----|-----------------|-------------------|----------------------|
D|-------------------|-----------------|-------------------|----------------------|
A|-------------------|-----------------|-------------------|----------------------|
E|-------------------|-----------------|-------------------|----------------------|

e|17--15----------|13--10--13--12--12----|13--15--------||
B|----------------|----------------------|----------11--||
G|----------------|----------------------|--------------||
D|----------------|----------------------|--------------||
A|----------------|----------------------|--------------||
E|----------------|----------------------|--------------||
Login or Register to remove this ad.

4 comments on Littleroot Town

The melody itself is

5

The melody itself is flawless, and very easily to play, but I would seriously love an added bass-line... that's all that's missing...

Be careful what you wish for

I've been working on an arrangement for this with the bass included - check it out here if you'd like www.gametabs.net/files/user/quinndangle2/littleroot.txt

There is a small mistake, but the tab is amazing nevertheless!

5

There is a smaaaaaaaall mistake on the 7th row on the last tab, there should be a double *10*.
Apart from that tiny mistake the tab is perfect! Props to you man

awesome tab!

5

Gosh this tab is so great! Not only is it accurate and easy, but it's also really fun!