Ads

Fortree City (Pokémon Ruby & Sapphire) Guitar Tab

Submitted: May 08, 2020 by H.F. (Last updated: May 14, 2020)

5
Average: 5 (3 votes)
Download | Listen
Game: Pokémon Ruby & Sapphire
Composer(s): Junichi Masuda, Go Ichinose, Morikazu Aold
Style: Arrangement, Fingerstyle
Series: Pokemon

AutoScroll: Slow | Medium | Fast
Title: Fortree City
Album: Pokémon Ruby/Sapphire/Emerald
Music: Go Ichinose, Morikazu Aoki, Junichi Masuda
Arranged by H.F.

Tempo = 128

Legend
h - hammer on/pull off

Capo 1


E |--0-------------------------|----------------------------||
B |-----4--0-------------------|--0-------------------------||
G |-----------2--1-----1--2----|----------------------------||
D |-----------------2----------|-----------2-----------1----||
A |----------------------------|--------------2--2--4-------||
E |--0-----------0-------------|--0-------------------------||


----------------------0----|--2--------0----------------|
----------0-----2--4-------|--2-----2-----------2-------|
o---1--2--1-----------1----|----------------------------|
o2-------------------------|-----2-----------2-----2----|
---------------------------|--0--------0----------------|
-0--------0-----------0----|----------------------------|


--2--------0----------------|----------------------------|
--1-----1--------1--3--1----|--0-------------------------|
-----------------2--4--2----|--1--------------------1----|
-----2----------------------|--------2--------2--4-------|
--0--------0----------------|----------------------------|
----------------------------|--0--0-----0----------------|


----------------------------|----------------------------|
--2-------------------------|--0--0-----0L-0-------------|
--2--1--2-----------1--2----|--------1-------------------|
-----------4-----4----------|--------------------2-------|
----------------------------|----------------------------|
--2--------2----------------|--4--------4L-4--4-----4----|


-----------------0--2--0----|
--2--------------1--3--1----|
--2--1--2-------------------|
-----------2----------------|
--0--------0----------------|
----------------------------|


--------------------------------------5h----4-----2-------------------------|
--4-----------------------------------------------------4h----2-----0-------|
--4-------------------------------------------------------------------------|
----------------------------------------------------------------------------|
--2--------2-----------------2----------------------------------------------|
----------------------------------------------------------------------------|


-----------------------0----|--2--------0----------------|
-----------0-----2--4-------|--2-----2-----------2-------|
-----1--2--1-----------1----|----------------------------|
--2-------------------------|-----2-----------2-----2----|
----------------------------|--0--------0----------------|
--0--------0-----------0----|----------------------------|


--2--------0--------0--2----|--4-------------------------|
--1-----1--------4----------|--0-------------------------|
--------------------1--2----|-----------------------1----|
-----2-----------4----------|--------2--------2--4-------|
--0--------0----------------|----------------------------|
----------------------------|--0--0-----0----------------|


--5--4--5--------2--4--5----|--4-----2-----0-------------|
-----------2----------------|--5-----4-----2-------------|
----------------------------|--------------------1--2----|
-----------4----------------|--------1-----2-------------|
----------------------------|--4-------------------------|
--2-------------------------|----------------------------|


----------------------------|----------------------------|
--0-----------------0--2----|--4-------------------------|
-----------------------1----|--2-------------------------|
--------------------4-------|----------------------------|
--2--2-----2-----2----------|--2--2-----2-----0----------|
----------------------------|--------------------4--2----|


----------------------------|-------||
-----------1--------1--0L---|--0----||
-----1--2--------2-----1L---|--1----||
--2-------------------------|-------||
--------------0-------------|-------||
--0--------------------0L---|--0----||

Login or Register to remove this ad.

2 comments on Fortree City

Sorry i have a mistake in 1st

Sorry i have a mistake in 1st bar.
please play like this.

                    v here edited
E |--0-------------------------|----------------------------||
B |-----4--0-------------------|--0-------------------------||
G |-----------2--1-----1--2----|----------------------------||
D |-----------------4----------|-----------2-----------1----||
A |----------------------------|--------------2--2--4-------||
E |--0-----------0-------------|--0-------------------------||

great work

5

i realized I've found your tabs before, but I had to come back and make sure I rated all these ruby and sapphire ones 5/5