Ads

Art Museum (Pokémon Ruby & Sapphire) Guitar Tab

Submitted: Apr 30, 2020 by H.F. (Last updated: May 08, 2020)

0
Download | Listen
Game: Pokémon Ruby & Sapphire
Composer(s): Junichi Masuda, Go Ichinose, Morikazu Aold
Style: Arrangement, Fingerstyle
Series: Pokemon

AutoScroll: Slow | Medium | Fast
Title: Art Museum
Album: Pokémon Ruby/Sapphire/Emerald
Music: Junichi Masuda, Go Ichinose, Morikazu Aoki
Arranged by H.F.

Tempo = 68

Legend
h - hammer on/pull off
^ - brush down

Drop D tuning

                                                      
E |----------------||-------0-------|--2--3--2-------|
B |----------------||-3-------------|-----------3----|
G |--------2-------||o---2-----2----|--------2-------|
D |----------------||o0--------4----|-----------4----|
A |----------------||---------------|-----0----------|
D |----------------||-------0-------|----------------|

                                                                      
----------------------------------------------------|--------0-------|
--2h-3h-2h-3h-2-----------2-------------------------|--2--3-----2----|
--2-----------------4-----------------0-------------|-----0----------|
--2-------------------------------------------------|--------4--2----|
--------------------------0-------------------------|-----4-----4----|
----------------------------------------------------|----------------|

                                  
--------2-------|--7-----10-7----|
--3--0-----3----|-----7----------|
-----------4----|-----------7----|
--0-------------|-----0-----9----|
--------2-------|--------9-------|
----------------|----------------|

                                                                      
--9h-10h9h-10h9-----------9-----------10------------|--12-9---------||
--------------------12------------------------------|--------10-----||
--9-----------------------9-------------------------|-----0-----12-o||
--11------------------------------------------------|--------------o||
--------------------------0-------------------------|-----------0---||
----------------------------------------------------|---------------||

                                                               
--12-9--5-------|--2--1--2--3--2-----0-------|----------------|
----------------|----------------------------|--3--2--0-------|
-----------5----|----------------------------|-----------2----|
----------------|--0-------------------------|----------------|
-----0----------|----------------------------|-----0--2--4----|
----------------|--------------0-------------|----------------|

                                                                           
----------------------------|--3--2--0-------|-----6--7--6--7-----4-------|
--0-----0--2--3-----0-------|-----------3----|--------0-----0-------------|
-----3----------------------|----------------|----------------------------|
--0-------------------------|-----0--2--4----|--6-------------------------|
----------------------------|----------------|----------------------------|
--------------0-------------|----------------|----------------------------|

                                                          
-----6--7--6--7-----4-------|--5--0--3--2--0-------------|
--------0-------------------|----------------------------|
----------------------------|--------------------2-------|
--6-----------6-------------|----------------------------|
----------------------------|--0-------------------------|
----------------------------|--------------5-------------|

                                                                      
--0-----------2-----------3-------------------------|--------0-------|
--2-----------3-----------5--------------------2----|--3-------------|
--------------------------------------------2-------|-----2--0--2----|
-----------------------------------------2----------|--4--0-----0----|
--------------------------------------4-------------|----------------|
--4-----------------------2-------------------------|--0-------------|

                                                                      
--2--3--2-------|----------------------------------------------------|
-----------3----|--2h-3h-2h-3h-2-----0-----2-------------------------|
--2--4--2-------|--------------------------0-----------0-------------|
-----------4----|--2-----------------------------------2-------------|
--0-------------|--4-------------------------------------------------|
----------------|----------------------------------------------------|

                                                                           
--------0-------|----------------------------|--------------------10------|
--2--3--0--2----|--3-----2-----3-----0-------|--7-----6-----7--------0----|
--0--2-----0----|----------------------------|-----4-----------4----------|
----------------|-----4-----4-----4-----0----|-----------4----------------|
----------------|--2-------------------------|----------------------------|
--5-------------|----------------------------|--4-------------------------|

                                                                                
--9-----------------7-------|-----------0----|--------0-------|--2--3--2-------|
----------------------------|--10-8--7-------|--3-------------|-----------3----|
--------7-----9--7-----7----|--0--------6----|-----2-----2----|--------2-------|
-----7-----7----------------|-----7--9-------|--0--------4----|-----------4----|
--0-------------------------|--0-------------|----------------|-----0----------|
----------------------------|----------------|--------0-------|----------------|

                                                                      
----------------------------------------------------|--0--2--3-------|
--2h-3h-2h-3h-2-----------2-----------3-------------|-----------2----|
--2-----------------4-------------------------------|-----0----------|
--2-------------------------------------------------|--------4--2----|
--------------------------0-------------------------|-----4-----4----|
----------------------------------------------------|----------------|

                                                                 ^
--------2-------|--5--3--2--3----|--0-----------------0--2----|--3-------------|
--3--------3----|----------------|-----------0--2--3----------|--2-----3--2----|
-----4----------|-----------0----|--------2-------------------|--2-------------|
-----------4----|--2-------------|-----2----------------------|--2-------------|
--2-----2-------|-----------2----|--0-------------------------|--0-------------|
----------------|----------------|----------------------------|----------------|


-------|-------||
--3----|-------||
-------|--2----||
--4----|--4----||
-------|-------||
-------|--0----||

Login or Register to remove this ad.