Ads

Pokemon Center (Pokémon Red & Blue & Yellow) Guitar Tab

Submitted: May 10, 2013 by Crabble

5
Average: 5 (5 votes)
Download | Listen
Game: Pokémon Red & Blue & Yellow
Composer(s): Junichi Masuda
Style: Transcription
Series: Pokemon

AutoScroll: Slow | Medium | Fast
		Pokemon Center
-------5-3-2-------------2-------2-----------5-3-2-------------2-----------|
-3---3-------5-2---2---2---5-2-3-------3---3-------5-2---2---2---5-2-3-----|
---2-----------------2-------------------2-----------------2---------------|
---------------------------------------------------------------------------|
---------------------------------------------------------------------------|
---------------------------------------------------------------------------|

-2-5-3-5-3-2-------2-3-2--------2-5-3-2-3-5-7---5-3-2-3--2-3-2-------|
-------------5-2-5---------5-3-----------------------------------5-3-|
---------------------------------------------------------------------|
---------------------------------------------------------------------|
---------------------------------------------------------------------|
---------------------------------------------------------------------|
Login or Register to remove this ad.

2 comments on Pokemon Center

I think this is great, but i

5

I think this is great, but i have found that instead of using the 5th fret on the b string, i decided to switch with the free note on the e string

Awesome

5

Yep