Ads

Pokémon Tower (Pokémon Red & Blue & Yellow) Guitar Tab

Submitted: Aug 01, 2016 by BrooktheBarmen

4.5
Average: 4.5 (2 votes)
Download | Listen
Game: Pokémon Red & Blue & Yellow
Composer(s): Junichi Masuda
Style: Arrangement, Fingerstyle
Series: Pokemon

AutoScroll: Slow | Medium | Fast
                                Pokemon Tower                                   


                                                      Composed by Junichi Masuda
Spur 1



     Q     Q    Q    Q          Q    Q     Q    S  S S  S  
E||--8p----7--------------||----8----------7--------------|
B||-------------8---------||--------------------8p-7------|
G||------------------9----||*---9----------9---------9p-8-|
D||-----------------------||*--10---------10--------------|
A||-----------------------||------------------------------|
E||-----------------------||------------------------------|


  Q    Q    Q    S  S  S  S    Q    Q    Q    Q       Q    Q     Q    Q     
------------8---------------|--7-------------------|--8---------------L----|
--8-------------------------|-------8---------8----|------------12---------|
--9---------9----9p-8-11p-8-|--9---------9---------|--9---------11---------|
--9---------9---------------|--9---------9---------|--9--------------------|
----------------------------|----------------------|-----------------------|
----------------------------|----------------------|-----------------------|


  S S E  Q    Q    Q       Q    Q    Q    Q       Q    Q    Q    Q     
--3-2-0-----------------|----------------------|----------------------|
--5-4-0-------0----0----|--0----0----1----0----|--1--------------L----|
--5-4-0--0----0---------|--0---------4---------|------------0---------|
--------------2---------|--2---------4---------|--2-------------------|
------------------------|----------------------|----------------------|
------------------------|----------------------|----------------------|


  Q    Q    Q    Q       Q    Q    Q    Q       Q    Q    Q    Q     
--0--------------L----|-------8----7---------|--7-------------------|
--1---------1---------|--0---------0----8----|--0----8----7----5----|
--0-------------------|------------0---------|------------4---------|
------------4---------|--4-------------------|------------0---------|
----------------------|----------------------|--7-------------------|
----------------------|----------------------|----------------------|


  Q    Q    Q    Q       Q    Q    Q    Q       Q    Q    Q    Q     
----------------------|----------------------|--7-------------------|
--7---------L----8----|--7--------------L----|-------8----7---------|
--5---------5---------|--5---------5---------|--9---------9----9----|
------------5---------|--5---------4---------|--9---------9---------|
--7-------------------|----------------------|----------------------|
----------------------|----------------------|----------------------|


   Q    Q     Q    Q        Q    Q     Q    Q        Q    Q     Q     Q     
---7---------------L----|---8--------------------|---L----------------L----|
------------------------|--------8-----7---------|-------------------------|
---9----------9---------|---9----------9----9----|---9----------9----12----|
--10---------10---------|--11---------11---------|--10---------10----10----|
------------------------|------------------------|-------------------------|
------------------------|------------------------|-------------------------|


   Q     Q     Q     Q        Q    Q    Q    E   E      Q     Q     Q    Q     
--10----------------------|--10------------------L--|--12---------------------|
--------10-----9----------|-------------------------|--------12----10----8----|
--11----------11----11----|---7---------7----7---8--|---9-----------9---------|
--12----------12----------|---7---------7-----------|---9-----------9---------|
--------------------------|-------------------------|-------------------------|
--------------------------|-------------------------|-------------------------|


   Q     Q     Q    Q        Q     Q     Q     Q        Q    Q    Q    Q     
--13---------------------|--14----------------------|-----------------------|
--------13----11----9----|--------15----13----11----|---9----7--------------|
--10----------10---------|--11----------11----------|--12---------9----7----|
--10----------10---------|--11----------11----------|--12-------------------|
-------------------------|--------------------------|-----------------------|
-------------------------|--------------------------|-----------------------|


   Q    Q     Q    Q       Q    Q    Q    Q       Q    Q     Q     Q     
------------------------|----------------------|------------------------|
------------------------|----------------------|------------------------|
------------------------|----------------------|------------------------|
--10--------------------|----------------------|-------------------L----|
---9----9----10----9----|--9-------------------|--9----9----10-----9----|
------------------------|----------------------|------------------------|


  Q    Q    E  E  E  E     Q    Q    Q    Q       Q    Q    Q     Q     
------------------------|--3--------------L----|--8---------------L----|
------------5--4--7--4--|--5----5----3---------|-----------------------|
------------------------|--4--------------5----|--9----9----7----------|
------------------------|----------------------|--9--------------10----|
--9---------------------|----------------------|-----------------------|
------------------------|----------------------|-----------------------|


  Q    Q    Q     Q       Q    Q    Q    Q        Q    Q    Q    Q     
--7----L---------------|--0----L----3----L----|---8-------------------|
------------8-----L----|--0-------------------|-----------------------|
--9----9----7----------|-------0--------------|---9-------------------|
--9--------------10----|------------4----2----|--10-------------------|
-----------------------|----------------------|-----------------------|
-----------------------|----------------------|-----------------------|


   Q    Q    E  E  E  E       W                  
---L----------------------||-------------------||
-------------5--4--7--4---||-------------------||
---9---------------------*||-------------------||
--10---------------------*||-------------------||
--------------------------||-------------------||
--------------------------||-------------------||
Login or Register to remove this ad.