Ads

Pallet Town (Pokémon Red & Blue & Yellow) Guitar Tab

Submitted: May 27, 2020 by shirobara (Last updated: Jun 10, 2020)

4
Average: 4 (4 votes)
Download | No audio :(
Game: Pokémon Red & Blue & Yellow
Composer(s): Junichi Masuda
Style: Artificial harmonics, Fingerstyle
Series: Pokemon

AutoScroll: Slow | Medium | Fast
My 4th guitar arrangement. Enjoy. The last note is supposed to be a harmonic. So do a one-handed harmonic while holding the C on the B string.

E|-3----1----0----1----|-8----5----7----5----|-3--------------0----|---------------------|
B|---------------------|---------------------|---------------------|-1---------1----3----|
G|---------------------|---------------------|-----------0---------|---------------------|
D|---------------------|---------------------|------2--------------|------2--------------|
A|-3-------------------|-8---------0---------|-3-------------------|-3-------------------|
E|---------------------|---------------------|---------------------|---------------------|


E|-0-------------------|---------------------|------0--------------|-1----0--------------|
B|------6--------------|-----------0----1----|-3-------------------|-----------3---------|
G|----------------5----|---------------------|----------------0----|---------------------|
D|-----------7---------|-7-------------------|-----------2---------|---------------------|
A|------8--------------|------8--------------|------3--------------|----------------2----|
E|---------------------|---------------------|---------------------|-----------3---------|


E|-----------3----1----|-0----1----8----7----|-7----8----5---------|------3----3---------|
B|---------------------|---------------------|---------------------|---------------------|
G|------0--------------|---------------------|---------------------|-0-------------------|
D|-0-------------------|---------------------|----------------2----|---------------------|
A|-----------3---------|-----------8---------|-0---------3---------|----------------2----|
E|---------------------|---------------------|---------------------|-----------3---------|


E|-----------1----0----|-----------3----1----|-0-------------------|---------------------|
B|---------------------|-3----1--------------|------3----1---------|----------------1----|
G|------0--------------|---------------------|---------------------|---------------------|
D|-0-------------------|---------------------|----------------3----|-2----0--------------|
A|---------------------|---------------------|-----------3---------|-----------3---------|
E|-----------1---------|-----------3---------|---------------------|---------------------|


E|------0--------------|---------------------|-----------0---------|---------------------|
B|-3---------6---------|-6---------8---------|-6----8--------------|----------------1----|
G|---------------------|---------------------|---------------------|-0-------------------|
D|----------------7----|------7---------9----|----------------2----|------2--------------|
A|-----------8---------|-----------10--------|-----------3---------|-----------3---------|
E|---------------------|---------------------|---------------------|---------------------|


E|------0--------------|---------------------|-----------0---------|----------------0----|
B|-3---------6---------|-6---------8---------|-6----8--------------|------0--------------|
G|---------------------|---------------------|---------------------|-0---------0---------|
D|----------------7----|------7---------9----|----------------2----|----------------0----|
A|-----------8---------|-----------10--------|-----------3---------|---------------------|
E|---------------------|---------------------|---------------------|---------------------|


E|---------------------|-0-------------------|-----------0----0----|-3-------------------|
B|-3----1----3---------|------3----1---------|-0----1--------------|------3--------------|
G|----------------2----|------2---------2----|---------------------|---------------------|
D|-----------0---------|------0--------------|---------------------|----------------0----|
A|---------------------|---------------------|---------------------|-----------2---------|
E|---------------------|---------------------|-3----1---------1----|------3--------------|


E|------3----1----0----|-1----8----5----7----|-5----3--------------|-0-------------------|
B|---------------------|---------------------|---------------------|------1----(13)------|
G|-0-------------------|---------------------|----------------0----|------0--------------|
D|---------------------|---------------------|-----------2---------|------2--------------|
A|------3--------------|------8---------0----|------3--------------|------3--------------|
E|---------------------|---------------------|---------------------|---------------------|



Login or Register to remove this ad.

2 comments on Pallet Town

Is every single note supposed

3

Is every single note supposed to be a quarter note?

No, I didn't notate the

No, I didn't notate the rhythm