Login or Register to remove this ad.

Pallet Town (Pokémon Red & Blue & Yellow) Guitar Tab

Submitted: Oct 01, 2017 by Emi

4.5
Average: 4.5 (2 votes)
Download | Listen
Game: Pokémon Red & Blue & Yellow
Composer(s): Junichi Masuda
Style: Arrangement, Fingerstyle
Series: Pokemon

Click here for a video example.

AutoScroll: Slow | Medium | Fast
Pallet Town
Pokemon
Junichi Masuda
Arranged for Guitar by Emilien Delcour
Tempo = 100
Standard Tuning 

Check the video out here!
https://www.youtube.com/watch?v=KkEKYKlwZIc

Legend
L - tied note
h - hammer on/pull off
s - slide
^ - brush down

                       ^          ^                          
E |--------------3--0--2h-0----|----------------------------|
B |--3--1--0-----3-----3-------|--3--------0-----------0----|
G |-----------2--------2-------|--2-----------0--0h-2-------|
D |--------------0-------------|--0-----------2--2----------|
A |--2-------------------------|--2--------------2----------|
E |--------3-----------2-------|--------------0-------------|

                             
----------------------------|
--1-------------------------|
--------------------0--2----|
--2-----2--------4----------|
-----0-----0----------------|
--------------3-------------|

  ^                                                  
----------------------------------------------------|
--0-----------------1h-0----------------------------|
--0-----------0-----------2-----------------0-------|
--0-----0-----------------0-----0-----4-------------|
--2-------------------------------------------------|
--3-----------------------2-------------------------|

                                                          
--------------3h-2--2--3----|--0-------------------------|
--3--1--0-----3-----3-------|-----------3--3-------------|
-----------2--------2-------|----------------------------|
--------------0-------------|--------------0-------------|
--2-------------------------|--3-------------------------|
--------3-----------2-------|----------------------------|

                                                          
----------------------------|----------------------------|
--1h-0--------3--1--0-------|-----------------------0----|
--------2h-0-----------2----|--0--------------0--2-------|
--2-----------------0-------|--2--------------2----------|
----------------------------|-----0--2--0----------------|
--------2-----3-------------|--3-----------3-------------|

                                                     
----------------------------------------------------|
--1-----------1-----------3-----------------1h-3----|
--0-----------0-----------0-------------------------|
--2-----------2-----------0-------------------------|
--------3-----------------------------2-------------|
--------------------3-------------------------------|

                             
----------------------------|
--0--------------------0----|
-----------0-----0--2-------|
--------2--------2----------|
-----2----------------------|
--3-----------0-------------|

                                                     
----------------------------------------------------|
--1-----------1-----------3-----------------1h-3----|
--0-----------0-----------0-------------------------|
--2-----------2-----------0-------------------------|
--------3-----------------------------2-------------|
--------------------3-------------------------------|

                                                     
----------------------------------------------------|
--0-------------------------------------------------|
--------------------0-----------2s-4--2-----0-------|
--------------2-------------------------------------|
--------2-------------------------------------------|
--3-----------------------0-------------------------|

                                                     
----------------------------------------------------|
----------------------------------------------------|
--2-----------------------------------2s-4----------|
--2-----------2-----------2-------------------------|
--0-----0-----------0-----3-----3-------------------|
----------------------------------------------------|

                             
----------------------------|
----------------------------|
--2-----------0-------------|
--2-----2-----------2-------|
--0--0-----0-----0----------|
-----------------------3----|

                                                     
----------------------------------------------------|
----------------------------------------------------|
--------------------------0-----------2s-4----------|
--4-------------------------------------------------|
--5-------------------------------------------------|
--2-------------------------------------------------|

                                                     
----------------------------------------------------|
----------------------------------------------------|
--4-----------------5h-4----------------------------|
--5-----------------------7-------------------------|
--5-----------------------9-------------------------|
--------------------------7-----------10------------|

                                                          
--10-8--------15-12-14-12---|--10-------------------7----|
--------12-10---------------|-----------12-8--8--10------|
----------------------------|--11----11----9-------------|
--------0-----------12------|-----12---------------------|
--10----------12------------|----------------------------|
----------------------------|----------------------------|

  ^                          
--8-------------------------|
--8-----------------8--10---|
--9--9-----9-----11---------|
--10----10----10------------|
----------------------------|
----------------------------|

                                                     
----------------------------------------------------|
--12----------12----13s12-10------------------------|
--12----------------------11----------------11------|
--------------------------------------12------------|
--------10----------------------9-------------------|
----------------------------------------------------|

                                                          
--10-8--------15-14-14-15---|--12-------10-10------------|
--------12-10---------------|--13----------12------------|
----------------------------|--12----------12------------|
--------0-------------------|----------------------------|
--10----------12------------|----------------------------|
----------------------------|----------------------------|

                                                          
--8-----------10------------|----------------------------|
-----12-10-------13-12-10---|--8--------------------0----|
--9-----11-12-11------------|--9--------------0--2-------|
--------------------12------|-----7--9--7--5--2----------|
----------------------------|----------------------------|
----------------------------|----------------------------|

                                                     
----------------------------------------------------|
--1-----------1-----------3-----------------1h-3----|
--0-----------0-----------0-------------------------|
--2-----------2-----------0-------------------------|
--------3-----------------------------2-------------|
--------------------3-------------------------------|

                             
----------------------------|
--0--------------------0----|
-----------0-----0--2-------|
--------2--------2----------|
-----2----------------------|
--3-----------0-------------|

                                                     
----------------------------------------------------|
--1-----------1-----------3-----------------1h-3----|
--0-----------0-----------0-------------------------|
--2-----------2-----------0-------------------------|
--------3-----------------------------2-------------|
--------------------3-------------------------------|

                                                     
----------------------------------------------------|
--0-------------------------------------------------|
--------------------0-----------2s-4--2-----0-------|
--------------2-------------------------------------|
--------2-------------------------------------------|
--3-----------------------0-------------------------|

                                                     
----------------------------------------------------|
----------------------------------------------------|
--2-----------------------------------2s-4----------|
--2-----------2-----------2-------------------------|
--0-----0-----------0-----3-----3-------------------|
----------------------------------------------------|

                             
----------------------------|
----------------------------|
--2-----------0-------------|
--2-----2-----------2-------|
--0--0-----0-----0----------|
-----------------------3----|

                                                     
----------------------------------------------------|
----------------------------------------------------|
--------------------------0-----------2s-4----------|
--4-------------------------------------------------|
--5-------------------------------------------------|
--2-------------------------------------------------|

                                                     
----------------------------------------------------|
----------------------------------------------------|
--4-----------------5h-4--2-------------------------|
--5-----------------------4-------------------------|
--5-----------------------0-------------------------|
----------------------------------------------------|

                    ^          ^                          
--------------3--0--2h-0----|--------------10-8----------|
--3--1--0-----3-----3-------|--3-----------------12-10---|
-----------2--------2-------|--2-------------------------|
--------------0-------------|--0-----------------0-------|
--2-------------------------|--2-----------10------------|
--------3-----------2-------|----------------------------|

                                          ^       ^
--15-12-14-12-10------------|--8--7----|--5----|--3L---|--3----||
----------------------------|----------|--4----|--3L---|--3----||
--------------11------------|--9--7----|--5----|--0L---|--0----||
--------12------------------|----------|-------|--0L---|--0----||
--12------------------------|----------|-------|--2L---|--2----||
----------------------------|----------|-------|--3L---|--3----||

Login or Register to remove this ad.

1 comment on Pallet Town

Very cool interpretation. I

5

Very cool interpretation. I like it!