Login or Register to remove this ad.

Cerulean City (Pokémon Red & Blue & Yellow) Guitar Tab

Submitted: Aug 11, 2017 by ar4757

5
Average: 5 (1 vote)
Download | Listen
Game: Pokémon Red & Blue & Yellow
Composer(s): Junichi Masuda
Style: Transcription
Series: Pokemon

AutoScroll: Slow | Medium | Fast
Pokemon Red and Blue
Cerulean City
Composed by Junichi Masuda
Tabbed by ar4757
8/11/17

e-------------------
B-5-4-2-0---0-2-4-5-
G---------2---------
D-------------------
A-------------------
E-------------------

*After reaching the end of the tab, loop back to here*

e-----------2/4/5\4--5p4p2-----
B-5-0-2-4h5------------------0-
G------------------------------
D------------------------------
A------------------------------
E------------------------------

e-----------2/4/5\4--0-4-7------
B-5-0-2-4h5---------------------
G-------------------------------
D-------------------------------
A-------------------------------
E-------------------------------

e-----------2/4/5\4--5p4p2-------------
B-5-0-2-4h5----------------------------
G--------------------------------------
D----------------------------2-2-2-2-2-
A--------------------------------------
E--------------------------------------

e-----------2/4/5\4--0-4-7------
B-5-0-2-4h5---------------------
G-------------------------------
D-------------------------------
A-------------------------------
E-------------------------------

e-------------4p0--------0-2---7p2--
B-2-0-2-4-5--------4-2-4------------
G-----------------------------------
D-----------------------------------
A-----------------------------------
E-----------------------------------

e------------------2-4--4h5p4h5--7-2-----------2-7-------
B-2-0-2-4-5--5-4-5-------------------4-2-0-2-4-----------
G--------------------------------------------------------
D--------------------------------------------------7-6-4-
A--------------------------------------------------------
E--------------------------------------------------------

e--------------------------------------------------
B------------------------------------4--5-4-2-4-5--
G----------1--2---4---4-------8---6----------------
D-2-----4-------------2----6------4----------------
A----2---------------------------------------------
E--------------------------------------------------
Login or Register to remove this ad.