Ads

Bicycle (Pokémon Red & Blue & Yellow) Guitar Tab

Submitted: Aug 02, 2014 by ltm_1988

5
Average: 5 (3 votes)
Download | Listen
Game: Pokémon Red & Blue & Yellow
Composer(s): Junichi Masuda
Style: Arrangement, Fingerstyle
Series: Pokemon

This song is also called Cycling

AutoScroll: Slow | Medium | Fast
Cycling
Pokemon Red/Blue/Yellow
Junichi Masuda
ltm_1988
7/15/14

    S S S S S S S S S S S S TTS S S   S S S S S S  S S TTS S S S S S S
E||---0---1---3---8---7-----575-----|-L---1-3-5-10-8-7-578-----5-3---6-|
B||-1-------------------------------|----------------------------------|
G||-----------------0---2---2---2---|-2--------------------0---0---0---|
D||-----2---2---2-------------3---2-|---0-3---3-0------3---------2---7-|
A||---3-------3-------8---3---------|-------0------8-7---7---3---------|
E||-------3-------8-----------------|----------------------------------|

    S S S S S S S S S S S S S S S S   S S S S S  S  S S S S S S S S S S
E||-L---8-7-8-5---------8-7-8-3-----|-L---8---12-10-8-7-8-10------------|
B||---------------------------------|-----------------------------------|
G||-0-----------0-2-0---0---0---0---|-0-------------------0-----0---0---|
D||-----8---7-3-------2-------2---2-|---3-0------0----0-------0---0---0-|
A||---8-----------------------------|-------0-8-----8---8---------------|
E||-------8---------------8---------|-----------------------8-----------|


    T  T S S S S S S S   
E||-10-8-7-------------|
B||--------------------|
G||-0----------0---0---|
D||------0---0---0-----|
A||------------------2-|
E||--------7-----------|

    S S S S S S S S S S S S S S S S   S S S S S S S S S S S S S S S S
E||-L-1-----1-3-1-0---0-----0-1-0---|---1-0---1-3---5-1-0-3---1-0-----|
B||-----------------3-------------3-|-1-----3-------------------------|
G||-0-------------------0---0---0---|-0---------------------0-----0---|
D||---0-3---3-0-3-0-3-2-------2---2-|---0-3---3-3-2-0-3-2-------2---2-|
A||-------0---------------3---------|-------0-------------3---3-------|
E||---------------------------------|---------------------------------|

                                        |--3-|          |-3-|
    TTS S S S S S S S S S S S S S S   S S  S S  E S. S. S S S  E   E   T  
E||---8-7-5-8-7---5---3-6---5-3---1-|-0-5--3-1--7-5--3--8-7-5--10--12--8--|
B||-68------------------------------|-----------------0----------0--------|
G||-0-------7---2-2---0-3---3-0-3-3-|-0-------2-0---0---------5-----------|
D||-----7-----------3-----1---------|---3-0-3-----2-----7---7---------10--|
A||---8---3---8---------------------|---------------------8---------12----|
E||---------------------------------|-------------------------------------|*
                                      S S S S S S S S S S S S S S S S S

    S S  S  S S  S S  S S  S S  S S S S S    W
E||-L-10--------------8----7--------------||-8--
B||--------------------------0----0-------||-8--
G||---0-----0----0----0----0----0---------||-9--
D||-7----10---10---10---10------------7---||-10-
A||---------------------------------8-----||-10-
E||-------------------------------------8-||-8--


*Alternate bar
    S S S S S S S S S S S S S S S  T  T   
E||-0-5---3-1-7---5-3-8---7-5-10---12-8-|
B||-----------------0---------0---------|
G||-0-------2-0---0---------5-----------|
D||---3-0-3-----------7---7-----12-10---|
A||-------------7-------8---------------|
E||-------------------------------------|

Login or Register to remove this ad.