Ads

Misty's Theme (Pokémon Puzzle League) Guitar Tab

Submitted: Nov 06, 2012 by Lemoncobbler

0
Download | Listen
Game: Pokémon Puzzle League
Composer(s): John Loeffler
Style: Arrangement, Fingerstyle, Percussion
Series: Pokemon

AutoScroll: Slow | Medium | Fast
                                Misty's Theme                                   
Pokemon Puzzle League
Composed by John Loeffler
Arranged by Lemoncobbler
11/2/2012


Track 1 (Capo 1)
     E  E  E  E  Q    Q       E  E  E  E  E  E  E  E   
E||------------------------|--------------------------|
B||--3--3-----3------------|--3--------3--------------|
G||--2--2-----4------------|--4--------2--------------|
D||--2--2-----4------------|--4--------2--------------|
A||--------x----------x----|--------x-----------x-----|
D||------------------------|--------------------------|


  E  E  E  E  Q    E  E   
-------------------------|
--3--3-----3----------3--|
--2--2-----4----------4--|
--2--2-----4----------4--|
--------x----------x-----|
-------------------------|


  (x) slap with palm on guitar                          
  E                            E  Q     E   E   E   E   
-------------------------------------------------------|
--L-------------------------------0--------------------|
--L-------------------------------2--------------------|
--L-------------------------------2--------------------|
----------------------------------x----(x)-----(x)-----|
-------------------------------------------------------|


           v                         v  ^                       v              
  E  E  E  Q    E  E  E     E  E  E  E  E  E  E  E     E  E  E  Q    E  E  E   
--2--2--0-------------0--|--L--0--0-----2--L--0-----|--2--2--0-------------0--|
--3--------3----3-----3--|--L--------3--3--L-----3--|--3--------3----3-----3--|
--2--------4----------4--|--L--------2--------------|--2--------4----------4--|
--2--------4----------4--|--L--------2--------------|--2--------4----------4--|
-------------------------|--------------------------|-------------------------|
--0--L--x----------x-----|--------x-----------x-----|--0-----x----------x-----|


        ^     ^                       v                         v  ^            
  E  E  E  E  E  E  E  E     E  E  E  Q    E  E  E     E  E  E  E  E  E  E  E   
--L--0--0--L--2--L--------|--2--2--0-------------0--|--L--0--0-----2--L--0-----|
--L-----0--3--3--L--------|--3--------3----3-----3--|--L--------3--3--L-----3--|
--L-----2--L--------------|--2--------4----------4--|--L--------2--------------|
--L-----2--L--------------|--2--------4----------4--|--L--------2--------------|
--------------------------|-------------------------|--------------------------|
--------x-----------x-----|--0-----x----------x-----|--------x-----------x-----|


  ^        v          v                 v                                     
  E  E  E  Q    E  E  E     E  E  E  E  Q    Q         Q    Q    E  E  E  E   
--2--3--5--0----------0--|--L--------0------------||-------------------------|
--3--L-----3----3-----3--|--L-----------3---------||-------------------------|
--2--L-----4----------2--|--L--2--------2---------||*------------------------|
-----------4----------2--|--L-----------0---------||*------------------------|
-------------------------|------------------------||-------------------------|
--------x----------x-----|--------x-----0----x----||---0----x-------4--x-----|


                 ^     ^                                           ^     ^     
  E  E  E  E  E  E  E  E     Q    Q    E  E  E  E     E  Q    Q    E  E  E     
--------------------------|------------------------|-------------------------||
-----------------3--L--3--|--L---------------------|---------------3-----3---||
-----------------2--L--2--|--L---------------------|---------------2-----2--*||
-----------------0--L--0--|--L---------------------|---------------0-----0--*||
-----0--2--0-----5--L--5--|--L---------------------|-----2----0----5-----5---||
--5-----x-----------x-----|--0----x-------4--x-----|--5---------------x------||


           ^                        ^                        ^             
  E  E  E  Q    E  Q       E  E  E  Q    E  Q       E  E  E  Q    E  Q     
------------------------|------------------------|------------------------|
------------------------|--2--L-----3------------|------------------------|
--2--2-----2------------|--2--L-----2------------|--2--2-----2------------|
--0--0-----2------------|-----------0------------|--0--0-----2------------|
------------------------|--4--4-----2----2-------|------------------------|
--2--2--x--4----4--x----|--------x----------x----|--2--2--x--4----4--x----|


  v          ^                      ^                     ^                
  Q    E  E  Q    E  E     E  E  E  Q    E  Q       E  E  E  Q    E  Q     
--0----------2----0-----|------------------------|--------0---------------|
--2----------3-------3--|------------------------|--2--L--3--3------------|
--2----------0----------|--2--2-----2------------|--2--2--2---------------|
--2---------------------|--0--0-----2------------|--------0---------------|
--4-------0-------------|------------------------|--4--L--2-------2-------|
-------x----------------|--2--2--x--4----4--x----|--------x----------x----|


                           (x)= palm slap body of guitar                        
           ^               v                                    ^   v   ^   v   
  E  E  E  Q    E  Q       Q                             E  E   E   E   E   E   
------------------------|--0------------------------------------0-------0------|
------------------------|--2------------------------------------2-------2------|
--2--2-----2------------|--2------------------------------------2---2---2---2--|
--0--0-----2------------|--2------------------------------------2---2---2---2--|
------------------------|--4--------------------------------0---0---0---0---0--|
--2--2--x--4----4--x----|--------------------------------------(x)-----(x)-----|


  ^  v  ^                               ^             ^  v  ^                 
  E  E  E  Q    E  E  E     E  E  E  E  Q    E  E     E  E  E  Q    E  E  E   
--5--5--3--2----L-----3--|-----3--3--2--5----3--2--|--5--5--3--2----L-----3--|
--3--3--3--3----L-----0--|--L--0--0-----3----------|--3--3--3--3----L-----0--|
--2--2--0----------------|--------------2----------|--2--2--0----------------|
--2--------0----0-----0--|--L--0-------------------|--2--------0----0-----0--|
-------------------------|-------------------------|-------------------------|
--0-----x----------x-----|--------x----------x-----|--0-----x----------x-----|


              ^            ^  v  ^                               ^           
  E  E  E  E  Q    Q       E  E  E  Q    E  E  E     E  E  E  E  Q    E  E   
-----3--3--2--5---------|--5--5--3--2----L-----3--|-----3--3--2--5----3--2--|
--L--0--0-----3---------|--3--3--3--3----L-----0--|--L--0--0-----3----------|
--------------2---------|--2--2--0----------------|--------------2----------|
--L--0--------2---------|--2--------0----0-----0--|--L--0-------------------|
--------------0---------|-------------------------|-------------------------|
--------x----------x----|--0-----x----------x-----|--------x----------x-----|


                             Repeat from beginning                      
  ^                                                v  ^  ^  ^           
  E   E  E  Q    E  E  E     E                     E  E  E  Q    Q      
--5s--7-----3----2-----3--|--L---------------------2--3--0------------||
------------3----3-----0--|--L---------------------3--3--3--3----L----||
--------------------------|------------------------2--2--2--2----L----||
------------0----0-----0--|--L------------------------------0----L----||
--------------------------|---------------------------------0----L----||
--0------x----------x-----|---------------------------x-----0----x----||




Duration Legend
---------------
W - whole
H - half
Q - quarter
E - 8th
S - 16th
T - 32nd
X - 64th
. - note dotted
|-n-|  - n-tuplets


Tablature Legend
----------------
L - tied note
x - dead note
g - grace note
(n) - ghost note
> - accentuded note
NH - natural harmonic
AH - artificial harmonic
TH - tapped harmonic
SH - semi harmonic
PH - pitch harmonic
h - hammer on
p - pull off
b - bend
br - bendRelease
pb - preBend
pbr - preBendRelease
brb - bendReleaseBend
\n/ - tremolo bar dip
\n - tremolo bar dive
-/n - tremolo bar Release up
/n\ - tremolo bar inverted dip
/n - tremolo bar return
-\n - tremolo bar Release down
S - shift slide
s - legato slide
/ -  slide into from below or out of upwards
\ -  slide into from above or out of downwards
~ - vibrato
W - wide vibrato
tr - trill
TP - tremolo picking
T - tapping
S - slap
P - pop
< - fade in
^ - brush up
v - brush down
Login or Register to remove this ad.