Ads

Time Gear (Pokémon Mystery Dungeon: Explorers of Time / Darkness / Sky) Guitar Tab

Submitted: Jun 04, 2020 by Andarnio (Last updated: Jun 14, 2020)

0
Download | No audio :(
Game: Pokémon Mystery Dungeon: Explorers of Time / Darkness / Sky
Composer(s): Arata Iiyoshi, Hideki Sakamoto, Keisuke Ito, Ken-ichi Saito, Yoshihiro Maeda
Style: Transcription
Series: Pokemon

AutoScroll: Slow | Medium | Fast
E||-----0-------|-0-----------|-------------|-------------|
B||-0-------3---|-------------|-------------|-------------|
G||-2-----------|-------------|-------------|-------------|
D||-2-----------|-------------|-------------|-------------|
A||-0-----------|-------------|-------------|-------------|
D||-------------|-------------|-------------|-------------|

-------------|-------------|-------------|-------------|
-------------|-------------|-------------|-------------|
-------------|-------------|-------------|-------------|
-------------|-------------|-------------|-------------|
-------------|-------------|-------------|-------------|
-------------|-------------|-------------|-------------|

-5-------0---|-------------|-------------|-------------|
-3---3-------|-------------|-------------|-------------|
-0-----------|-2-----------|-------------|-------------|
-------------|-------------|-------------|-------------|
-------------|-------------|-------------|-------------|
-------------|-------------|-------------|-------------|

-------------|-------------|-------------|-------------||
-------------|-------------|-------------|-------------||
-------------|-------------|-------------|------------*||
-------------|-------------|-------------|------------*||
-------------|-------------|-------------|-------------||
-------------|-------------|-------------|-------------||



||-----0-------|-0-----------|-0-----------|-----0-------|
||-0-------3---|-------------|-0-------3---|-----0-------|
||-0-----------|-------------|-2-------5---|-----2-------|
||-------------|-------------|---------5---|-------------|
||-3-----------|-------------|-------------|-------------|
||-3-----------|-------------|-------------|-------------|


-5-------0---|-------------|-2-----------|-------------||
-----3-------|-------------|-5-----------|-------------||
-------------|-2-----------|-4-----------|------------*||
-4-----------|-------------|-------------|------------*||
-2-----------|-------------|-------------|-------------||
-2-----------|-------------|-------------|-------------||
repeat x3


-----0-------|-0-----------|-0-----------|-----0-------|
-0-------3---|-------------|-0-------3---|-----0-------|
-0-----------|-------------|-2-------5---|-----2-------|
-------------|-------------|---------5---|-------------|
-3-----------|-------------|-------------|-------------|
-3-----------|-------------|-------------|-------------|


-5-------0---|-------------|-2-----------|-5---0-2-3-5-|
-----3-------|-------------|-5-----------|-7-----------|
-------------|-2-----------|-4-----------|-7-----------|
-4-----------|-------------|-------------|-------------|
-2-----------|-------------|-------------|-------------|
-2-----------|-------------|-------------|-------------|


-7------5----|-------------|-------------|-----0-2-3-5-|
-5--------8--|-7-------7---|-5-----------|-------------|
-5-----------|-----7-------|-----4---2---|-4-----------|
-------------|-------------|-------------|-0-----------|
-3-----------|-------------|-------------|-------------|
-------------|-------------|-------------|-------------|

-7------5----|-------------|-----7---5---|-7---0-2-3-5-|
-7--------8--|-7-------7---|-5-----------|-------------|
-4-----------|-----7-------|-------------|-------------|
-0-----------|-------------|-0-----------|-------------|
-------------|-------------|-------------|-------------|
-------------|-------------|-------------|-------------|


-7------5----|-------------|-------------|-------------|
-5--------8--|-7-------7---|-5-----------|-----------3-|
-5-----------|-----7-------|-----4---2---|-4-------4---|
-------------|-------------|-------------|-0-----------|
-3-----------|-------------|-------------|-------------|
-------------|-------------|-------------|-------------|

-0------3----|-2---0-------|-------------|-----0-2-3-5-|
-3-----------|---------3---|-------------|-------------|
-4-----------|-------------|-4-----------|-------------|
-4-----------|-------------|-0-----------|-------------|
-2-----------|-------------|-2-----------|-------------|
-------------|-------------|-------------|-------------|

-7------5----|-------------|-------------|-----0-2-3-5-|
-5--------8--|-7-------7---|-5-----------|-------------|
-5-----------|-----7-------|-----4---2---|-4-----------|
-------------|-------------|-------------|-0-----------|
-3-----------|-------------|-------------|-------------|
-------------|-------------|-------------|-------------|

-7------5----|-------------|-----7---5---|-7---0-2-3-5-|
-7--------8--|-7-------7---|-5-----------|-------------|
-4-----------|-----7-------|-------------|-------------|
-0-----------|-------------|-0-----------|-------------|
-------------|-------------|-------------|-------------|
-------------|-------------|-------------|-------------|


-7------5----|-------------|-------------|-------------|
-5--------8--|-7-------7---|-5-----------|-------------|
-5-----------|-----7-------|-----4---2---|-4---2---0---|
-------------|-------------|-------------|-0-----------|
-3-----------|-------------|-------------|-------------|
-------------|-------------|-------------|-------------|


-------------|-------------|-------------|-------------|
-------------|-------------|-------------|-------------|
-------------|-------------|-------------|-------------|
-2-----------|-------------|-2-------5---|-4---2---0---|
-0-----------|-------------|-2-----------|-2-----------|
-0-----------|-4-----------|-0-----------|-------------|


-----0-------|-0-----------|-------------|-------------|
-0-------3---|-------------|-------------|-------------|
-2-----------|-------------|-------------|-------------|
-2-----------|-------------|-------------|-------------|
-0-----------|-------------|-------------|-------------|
-------------|-------------|-------------|-------------|
loop back to beginning
Login or Register to remove this ad.