Ads

Northern Desert (Pokémon Mystery Dungeon: Explorers of Time / Darkness / Sky) Guitar Tab

Submitted: Feb 20, 2012 by Lemoncobbler (Last updated: Oct 18, 2014)

5
Average: 5 (1 vote)
Download | Listen
Game: Pokémon Mystery Dungeon: Explorers of Time / Darkness / Sky
Composer(s): Arata Iiyoshi, Hideki Sakamoto, Keisuke Ito, Ken-ichi Saito, Yoshihiro Maeda
Style: Arrangement, Fingerstyle
Series: Pokemon

AutoScroll: Slow | Medium | Fast
Northern Desert(Capo 2)
Game: Pokemon Mystery Dungeon Explorers of Time
Composed by: Arata Iiyoshi, Atsuhiro Ishizuna 
Tabbed by Lemoncobbler





     PART 1                                                                 
     Q      Q    Q    Q       Q    Q    Q    Q       Q    Q    Q    Q       
E||---------0--------------|-----------------0----|------------0----------||
B||--------------0----1----|----------------------|--0----1---------------||
G||--2---------------------|--0----2----2---------|-----------------0----*||
D||-------------------0----|----------------------|-------0--------------*||
A||--------------0---------|----------------------|--0--------------------||
C||--2---------------------|------------2---------|-----------------------||


   E  E  Q    Q    E  E     Q    Q    Q    Q       Q    Q    Q    Q     
-------------------------|-----------------0----|--0-------------------|
------0--1----3----1--0--|----------------------|-------0--------------|
*--2---------------------|--2----0----2---------|----------------------|
*------------------0-----|----------------------|-------0----2---------|
--------------0----------|----------------------|--0--------------2----|
---2---------------------|------------2---------|----------------------|


  E  E  Q    Q    E  E     Q    Q    E  E  E  E     E  E  Q    Q    Q     
------------------------|---------------------0--|--2--4--6--------------|
-----0--1----3----1--0--|------------0--2--4-----|-----------------------|
--2---------------------|--2----0----------------|-----------------------|
------------------0-----|------------------------|------------------4----|
-------------0----------|------------------------|--------4----6---------|
--2---------------------|------------1-----------|-----------------------|


  Q    Q    E  E  Q       Q    E  E  H           E  E  Q    Q    E  E   
--7---------5--3--2----|--0-------0-----------|------------------------|
-----------------------|-------0-----2--------|--0--2------------------|
-----------------------|----------------------|--------2------------2--|
------------------2----|----------------------|--------0----4----4-----|
------------2----------|----------------------|--0---------------------|
--4----7---------------|-------------2--------|------------------------|


  H        Q    Q       Q    Q    H           Q    H        Q       
-----------0----0----|---------------------|----------------------||
--0------------------|--0---------0--------|-------0--------------||
---------------------|-------2-------------|--2------------------*||
---------------------|-------2-------------|--2------------------*||
----------------3----|-------2-------------|--2-------------------||
--0--------7---------|------------0--------|-------0--------1-----||


  PART 2                                                  
  E      E  E  E  E  E  E  E     E  E  E  E  E  E  E  E   
------------------0--------L--|--5--------L--0--------L--|
------------------------------|--------------------------|
--2---------L--------0--2--0--|--------------------------|
------------------2-----------|--2-----------------2-----|
------------0--3--------------|-----3--0--------3-----3--|
--4------L--------------------|-----------4--0-----------|


  E  E  E  E  E  E  E  E     E  E  E  E  E  E  E  E   
--------------0--L--------|--------------0--------L--|
-----0--3--L--------0-----|--------------------------|
--0--------4--0-----------|--2-----L--------0--2--0--|
-----------------2--0-----|--------------2-----------|
-----------------------2--|--------0--3--------------|
--------------------------|--4--L--------------------|


  E  E  E  E  E  E  E  E     E  E  E  E  E  E  E  E   
--5--------L--0--------L--|--------------------2-----|
--------------------------|--------------------------|
--------------------------|--------------------------|
--2-----------------------|-----2-----------2-----0--|
-----3--0-----------4--2--|--4--------0--3-----------|
-----------4--1--L--------|--------2-----------L-----|


  E  E  E  E  E  E  E  E     E  E  E  E  E  E  E  E   
--3--L--------------------|--------------------------|
--------6-----4--L--3--L--|--1--L--------------3--L--|
--------------5--3--------|--------3--L--2--L--------|
--------3--6--------------|-----1-----1-----------0--|
-----3--------------------|--1-----------2--0--2-----|
--4-----------------0--L--|--------------------------|


  E  E  E  E  E  E  E  E     E  E  E  E  E  E  E  E     Q    Q    Q    Q     
--5--L--------------------|--------0-----7-----0-----|----------------------|
--------3-----------0-----|--0-----------0-----------|-------0----2---------|
-----------------0-----0--|-----------------0--------|-----------------2----|
--4--0-----2--0-----------|--------2-----------------|--2-------------------|
--------------------------|-----2-----2-----------4--|----------------------|
--------4-----------------|--1-----------------6-----|----------------------|


  PART 3                                                               
  Q      Q    Q    Q       Q    Q    Q    Q       Q    Q    Q    Q     
------------------------|------------5----L----|--L---------9----5----|
--7-----------L---------|-------7--------------|-------7--------------|
-------------------6----|--7-------------------|----------------------|
------------------------|-------7---------7----|--7---------7----0----|
---------9----9---------|----------------------|----------------------|
--7------7---------7----|--7---------7---------|--7----7---------2----|


  E  E  E  E  Q    E  E     E  E  E  E  Q    Q       Q    Q    Q    Q     
--------0--2--0----------|------------------------|----------------------|
--2--3----------------3--|--2--0--2--0--2---------|----------------------|
-------------------------|--------------2----2----|--2----2----2----2----|
-------------------------|------------------------|----------------------|
-------------------------|------------------------|----------------------|
--2-----------2----2-----|--------2-----2---------|-------2----2---------|


  Q    Q    Q    Q       Q    Q    Q    Q       Q    Q    Q    Q     
----------------------|------------5----L----|--L---------9----5----|
--7---------L---------|-------7--------------|-------7--------------|
-----------------6----|--7-------------------|----------------------|
----------------------|-------7---------7----|--7---------7----0----|
-------9----9---------|----------------------|----------------------|
--7----7---------7----|--7---------7---------|--7----7---------2----|


  E  E  E  E  Q    E  E     E  E  Q    E  E  E  E     Q    Q    Q    Q     
--------------0----------|-------------------------|----------------------|
-----0--2--3----------3--|--2--0--2-------2--0-----|----------------------|
--2-----2----------2-----|--2-----2----2--------2--|--0----2----2----2----|
-------------------------|-------------------------|----------------------|
-------------------------|-------------------------|----------------------|
--2-----------2----2-----|--------2----2-----------|-------2----2---------|


  Q    E  E  E  E  Q       Q    Q    Q    E  E      E  E   Q    E   E   E  E   
--5-------L-----5--8----|-----------------------|------8--12-------10---8--7--|
----------5--6--L-------|--------------------9--|--10-------------------------|
-------5-----5----------|--5----5----5----5-----|----------9----9-------------|
------------------------|-----------------------|----------------------10-----|
------------------------|-----------------------|-----------------------------|
--5----------------5----|--5---------5----------|-----------------------------|


  E  E  E  E  Q    E  E     E  E  Q    E  E  E  E     E  E  Q    Q    Q     
--5-----------L----------|-------------------------|-----------------------|
-------------------------|-------------------------|-----------------------|
-------------------------|-------------0-----------|-----------------------|
-----------0--4----------|-----0--2-------1--------|--------4----4----4----|
--------0-------------0--|--3----------------0-----|-----------------------|
--2--6-------------2-----|-------------2--------7--|--6--4--2--------------|


  Q    E  E  Q    Q       E  E  Q    Q    E  E     Q    Q    E  E  Q     
--0-------5--0---------|-----0------------------|-----------------------|
------------------3----|--------0------------0--|--1----0---------------|
-----------------------|-------------2----------|---------------2--0----|
-----------------------|------------------------|-----------------------|
-----------------------|------------------------|-----------------------|
--5----5----------4----|--4----------2----2-----|-------0----0----------|


  v          
  H          
-----------||
-----------||
--0--------||
--2--------||
-----------||
--4--------||




Duration Legend
---------------
W - whole
H - half
Q - quarter
E - 8th
S - 16th
T - 32nd
X - 64th
. - note dotted
|-n-|  - n-tuplets


Tablature Legend
----------------
L - tied note
x - dead note
g - grace note
(n) - ghost note
> - accentuded note
NH - natural harmonic
AH - artificial harmonic
TH - tapped harmonic
SH - semi harmonic
PH - pitch harmonic
h - hammer on
p - pull off
b - bend
br - bendRelease
pb - preBend
pbr - preBendRelease
brb - bendReleaseBend
\n/ - tremolo bar dip
\n - tremolo bar dive
-/n - tremolo bar Release up
/n\ - tremolo bar inverted dip
/n - tremolo bar return
-\n - tremolo bar Release down
S - shift slide
s - legato slide
/ -  slide into from below or out of upwards
\ -  slide into from above or out of downwards
~ - vibrato
W - wide vibrato
tr - trill
TP - tremolo picking
T - tapping
S - slap
P - pop
< - fade in
^ - brush up
v - brush down
Login or Register to remove this ad.